Crashdiet - Save Her tab

D tuning/ one step down
im 100% sure about the intro but not the vers and chorus
they might be wrong with one fret

Intro
E-----------------------------------------------------|
B-----------------------------------------------------|
G-----------------------------------------------------|
D------------9--6-7-9-7-6-9------------9--6-7-9-7-6---|
A--2-4-5---7-----------------2-4-5---7--------------7-|
E--------5-------------------------5------------------|

Vers
(Palm mute the vers)
E-----------------------------------------------|
B-----------------------------------------------|
G--5-5-5-7-7-7-7-7--7-7-7-9-9-9-9-9-------------|
D--5-5-5-7-7-7-7-7--7-7-7-9-9-9-9-9-------------|
A--3-3-3-5-5-5-5-5--5-5-5-7-7-7-7-7-------------|
E-----------------------------------------------|

Chorus
I cant save her because its nobody home
I cant change her cause shes still far gone
and i heartbreakes cause i couldnt reach her
E---------------------------------------|
B---------------------------------------|
G-------11---7---------------------9----|
D-------11---7---------------7-----9----|
A-------9----5---------------7-----7----|
E----------------------------5----------| x3

no one can save her now.. save her now...
E----------------------------------------|
B----------------------------------------|
G----11-------7--------------------------|
D----11-------7-----------7-7-7-7-7-7----|
A----9--------5-----------7-7-7-7-7-7----|
E-------------------------5-5-5-5-5-5----|

               no one can save her noooow...
E--------------------------------------------------|
B--------------------------------------------------|
G--------------------------------------------------|
D------------9--6-7-9-7-6-9------------9--6-7-9-6--|
A--2-4-5---7-----------------2-4-5---7-------------|
E--------5-------------------------5---------------|
Tap to rate this tab
 
# A B C D E F G H I J K L M N O P Q R S T U V W X Y Z