Crashdiet - Its A Miracle tab

D tuning/ 1 step down


Intro:
Before the first chord they do a pick slide

E----------------------|--------------------------|
B----------------------|--------------------------|
G---------4----2-------|---------4----2----2-2----|
D--2-4----4----2----2--|--2-4----4----2----2-2-2--|
A--2-4----2----0----2--|--2-4----2----0----0-0-2--|
E--0-2--------------0--|--0-2------------------0--|

Vers:

My veak resistance of your flower got me infected caus i was to blind to see...
E--------------------------------------------------------------------------|
B--------------------------------------------------------------------------|
G--6--------------4--------------6---------------------4---4---------------|
D--6--------------4--------------6---------------------4---4------4---4----|
A--4--------------2--------------4---------------------2---2------4---4----|
E-----------------------------------------------------------------2---2----|

Pre Chorus:

    You lead the game i followed, you were the bait i swallowed
E----------------------------------------------------|
B----------------------------------------------------|
G-2--------------2--------------2--------------4-----|
D-2--------------2--------------2--------------4-----|
A-0--------------0--------------0--------------2-----|
E----------------------------------------------------|

Chorus:

    It's a miracle you walk the earth alone it's a miracle i stand a side you
E----------------------------------------------------------------------------|
B----------------------------------------------------------------------------|
G-9--------------------5---------------7----------------------5-----7--------|
D-9--------------------5--------5------7----------------------5-----7--------|
A-7--------------------3--------5------5----------------------3-----5--------|
E-------------------------------3--------------------------------------------|

   Your like a plague in a wide and open show you pass it on like i needed it most
E----------------------------------------------------------------------------|
B----------------------------------------------------------------------------|
G-9------------------------5---------------7-------------------------5-------|
D-9------------------------5--------5------7-------------------------5-------|
A-7------------------------3--------5------5-------------------------3-------|
E-----------------------------------3----------------------------------------|

Solo:
b=bend br=release bend /=slide h=hammer on p=pull off

E----------------------------------------11h14p11------------------------------------------|
B------12-----------------------9--12/14----------14-11------------------------------------|
G--11b---11br-9--11-9-11-9---11b------------------------13-11------------------------------|
D-------------------------------------------------------------13-11------------------------|
A-------------------------------------------------------------------14-13-11---------------|
E----------------------------------------------------------------------------14-13-12-11-9-|

E---12---16-16b-14---16-14--14h16p14-12-14-12------------------|
B-12--12-----------17-------------------------16b~~~~~~~~~~~~~~|
G--------------------------------------------------------------|
D--------------------------------------------------------------|
A--------------------------------------------------------------|
E--------------------------------------------------------------|

Bridge
     You knew my pain               You led the game
E---------3-------------5--------------3-------------5----------|
B-----1-----1-------3-----3--------1-----1-------3-----3--------|
G---2---2-----2---4---4-----4----2---2-----2---4---4-----4------|
D-3-------------5--------------3-------------5------------------|
A---------------------------------------------------------------|
E---------------------------------------------------------------|

And I followed (Yeah I followed)
                Your lies, your play, you're all the same to me
E---------------------------------------------------------------|
B---------------------------------------------------------------|
G-2-2-2-2-2-2-2-2-2-2-2-2-2-2-2-2-2-2-2-2-2-2-2-2-2-2-----------|
D-2-2-2-2-2-2-2-2-2-2-2-2-2-2-2-2-2-2-2-2-2-2-2-2-2-2-----------|
A-0-0-0-0-0-0-0-0-0-0-0-0-0-0-0-0-0-0-0-0-0-0-0-0-0-0-----------|
E---------------------------------------------------------------|

Outro Chorus:
First after the bridge they play the normal chorus once, but after that its like this 
until the song end

    It's a miracle you walk the earth alone it's a miracle i stand a side you
E----------------------------------------------------------------------------|
B----------------------------------------------------------------------------|
G-11-------------------7---------------9----------------------7-----9--------|
D-11-------------------7--------7------9----------------------7-----9--------|
A-9--------------------5--------7------7----------------------5-----7--------|
E-------------------------------5--------------------------------------------|

   Your like a plague in a wide and open show you pass it on like i needed it most
E----------------------------------------------------------------------------|
B----------------------------------------------------------------------------|
G-11-----------------------7---------------9-------------------------7-------|
D-11-----------------------7--------7------9-------------------------7-------|
A-9------------------------5--------7------7-------------------------5-------|
E-----------------------------------5----------------------------------------|
Tap to rate this tab
 
# A B C D E F G H I J K L M N O P Q R S T U V W X Y Z