Crashdiet - Breakin The Chainz tab

D tuning/one step down

Intro:

E------------------------------------------------------|
B------------------------------------------------------|
G------------------------------------------------------|
D-2-2-2-2-2-2-2-2-2-2-2-2-2-2-2-2-2-2-2-2-2-2-2-2-2-2--|
A-2-2-2-2-2-2-2-2-2-2-2-2-2-2-2-2-2-2-2-2-2-2-2-2-2-2--|
E-0-0-0-0-0-0-0-0-0-0-0-0-0-0-0-0-0-0-0-0-0-0-0-0-0-0--|

E----------------------------------|
B----------------------------------|
G----------5-------7-------9-------|
D--2-------5-------7-------9-------|
A--2-------3-------5-------7-------|
E--0-----------------------0-------|

Intro solo:

E--12--12---14--14---15---17---22-22b-----|
B--15b-15b--17b-17b--18b--20b-------------|
G-----------------------------------------|
D-----------------------------------------|
A-----------------------------------------|
E-----------------------------------------|

Vers:

E----------------------------------|
B----------------------------------|
G----------5-------7-------9-------|
D--2-------5-------7-------9-------|
A--2-------3-------5-------7-------|
E--0-----------------------0-------|

Pre chorus:
(you dont have to play the picking notes)

E-------------------------------|
B-----------------5-----7-------|
G--9--7--5----5-----5-----5-----|
D--9--7--5--5---5-----5-----5---|
A--7--5--3----------------------|
E-------------------------------| 2x

3rd time:
E------------------------------|
B-----------------5------------|
G--9--7--5----5-----5----4-----|
D--9--7--5--5---5-----5--4-----|
A--7--5--3---------------2-----|
E------------------------------|

Chorus:

E----------------------------|----------------------------|
B----------------------------|----------------------------|
G------9-7-9-----------5--7--|-----9-7-9-----------5---4--|
D------9-7-9-----------5--7--|-----9-7-9-----------5---4--|
A------7-5-7--0-2------3--5--|-----7-5-7--0-2------3---2--|
E--0-0------------3-0--------|-0-0------------3-0---------|

Solo Rythm Guitar:

E----------------------------------|
B----------------------------------|
G--7--------7--------5---------5---|
D--7--------7--------5---------5---|
A--5--------5--------3---------3---|
E----------------------------------|  2x

Solo:

E----10--15--14--10--15--14--10-10\6----------------------------|
B--10--10--10--10--10--10--10---10\6----------------------------|
G-------------------------------------10/12-9h10p9--7-9-7-5-7---|
D---------------------------------------------------------------|
A---------------------------------------------------------------|
E---------------------------------------------------------------|

E--------------------------------------------------------------|
B------7--7h8p7-10p7-8p7-10p7-8p7-10p8--7\5--------------------|
G--7h9----------------------------------7\5--4h5p4-----4-------|
D--------------------------------------------------7-5---5-7---|
A--------------------------------------------------------------|
E--------------------------------------------------------------|

The part with heavy drums
rythm:

E------------------------------------------------------|
B------------------------------------------------------|
G------------------------------------------------------|
D-2-2-2-2-2-2-2-2-2-2-2-2-2-2-2-2-2-2-2-2-2-2-2-2-2-2--|
A-2-2-2-2-2-2-2-2-2-2-2-2-2-2-2-2-2-2-2-2-2-2-2-2-2-2--|
E-0-0-0-0-0-0-0-0-0-0-0-0-0-0-0-0-0-0-0-0-0-0-0-0-0-0--|

  ALL!  IS!  RIGHT!
E------------------------|
B------------------------|
G-9-----9-----9-----9----|
D-9-----9-----9-----9----|
A-7-----7-----7-----7----|
E------------------------|

Lead:
(slowly)
E--------------------------|
B--5-----7-----8-----10----|
G--7b----9b----10b---12b---|
D--------------------------|
A--------------------------|
E--------------------------|

(fast)
  ALL!  IS!  RIGHT!
E--12---14----15----17--22b-22b-22b-22b---|
B--15b--17b---18b---19b-------------------|
G-----------------------------------------|
D-----------------------------------------|
A-----------------------------------------|
E-----------------------------------------|

b - bend
/ - slide
p - pull-off
h - hammer-on
Tap to rate this tab
 
# A B C D E F G H I J K L M N O P Q R S T U V W X Y Z