Song name
# A B C D E F G H I J K L M N O P Q R S T U V W X Y Z

Crashdiet - Native Nature tab

D tuning/ one step down


Intro/vers:

E--------------------------------|-----------------------------|
B--------------------------------|-----------------------------|
G-----------4/5/4-2--------2-----|-----------4/5/4-2--------2--|
D--2-4-2-4--4/5/4-2--2-4-2-2--2--|--2-4-2-4--4/5/4-2--2-4-2-2--|
A--2-4-2-4-----------2-4-2----2--|--2-4-2-4-----------2-4-2----|
E--------------------------------|-----------------------------|

Vers (distorted)

E-----------------------------------------------------------|
B-----------------------------------------------------------|
G----------------2-------------4-------------5--------------|
D--4-------------2-------------4-------------5--------------|
A--4-------------0-------------2-------------3--------------|
E--2-0-0-0-0-0-0---0-0-0-0-0-0---0-0-0-0-0-0---0-0-0-0-0-0--|

Pre-Chorus:

Rollin down town meetin up a crowd the weel is spinning round Scream out loud
E--------------------------------------------------------------------------|
B--------------------------------------------------------------------------|
G-2--2--2--2--2-------------------------2--2--2--2--2----------------------|
D-2--2--2--2--2---4--4--4--4--4---------2--2--2--2--2---------4--4--4--4--|
A-0--0--0--0--0---4--4--4--4--4---------0--0--0--0--0---------4--4--4--4--|
E-----------------2--2--2--2--2-------------------------------2--2--2--2--|

But my head is stayin still as i bing on the can i know its going down the drain
E--------------------------------------------------------------------------|
B--------------------------------------------------------------------------|
G------2--2--2--2--2--2-----------------------------2--2-------------------|
D------2--2--2--2--2--2----------4--4--4--4--4--4---2--2-------------------|
A------0--0--0--0--0--0----------4--4--4--4--4--4---0--0-------------------|
E--------------------------------2--2--2--2--2--2--------------------------|

  we know its going down the drain...
E------------------------------------|
B------------------------------------|
G-2-2-2-2-2-2-2-2-2-2-2-2-2-2-2-2----|
D-2-2-2-2-2-2-2-2-2-2-2-2-2-2-2-2----|
A-0-0-0-0-0-0-0-0-0-0-0-0-0-0-0-0----|
E------------------------------------|

Chorus:

 whats it got do do with you     dont mind about my bad behaviour
E-------------------------------------------------------------------|
B-------------------------------------------------------------------|
G----------------------------------9--9--9--9--9--9-----------------|
D-4--4--4--4--4--4--4--7--7--7--7--9--9--9--9--9--9--9--9--9--9--9--|
A-4--4--4--4--4--4--4--7--7--7--7--7--7--7--7--7--7--9--9--9--9--9--|
E-2--2--2--2--2--2--2--5--5--5--5--------------------7--7--7--7--7--|

 whats it got do do with you     if im crawling like an alligator
E-------------------------------------------------------------------|
B-------------------------------------------------------------------|
G----------------------7--7--7--7--9--9--9--9--9--9-----------------|
D-4--4--4--4--4--4--4--7--7--7--7--9--9--9--9--9--9--9--9--9--9--9--|
A-4--4--4--4--4--4--4--5--5--5--5--7--7--7--7--7--7--9--9--9--9--9--|
E-2--2--2--2--2--2--2--------------------------------7--7--7--7--7--|

  its native nature
E---------------------------------------------|
B---------------------------------------------|
G-------------------------4/5/4-2--------2----|
D-----------------2-4-2-4-4/5/4-2--2-4-2-2----|
A-----------------2-4-2-4----------2-4-2------|
E---------------------------------------------|

The rythm guitar in the solo is the same as the vers 

Bridge:

E-------------------------------------------------|
B-------------------------------------------------|
G----------4b-2--------2-----------4b-2-------2---|
D--2-4-2-4-------2-4-2-----2-4-2-4------2-4-2-----|
A-------------------------------------------------|
E-------------------------------------------------|

/=slide

B=bend
Tap to rate this tab
 
# A B C D E F G H I J K L M N O P Q R S T U V W X Y Z