Song name
# A B C D E F G H I J K L M N O P Q R S T U V W X Y Z

Crashdiet - Xtc Overdrive tab

D tuning/ 1 step down/ DGCFAD


Intro:

E-------------------------------------------------|
B-------------------------------------------------|
G--------5-----------------------5----------------|
D--3--3--5-5---3--3--3-5---3--3--5-5---3--3--3-5--|
A--3--3--3-5---3--3--3-5---3--3--3-5---3--3--3-5--|
E--1--1----3---1--1--1-3---1--1----3---1--1--1-3--| 

Vers:

   XTC OVERDRIVE Prowling til' end of time, hey Lotta women on the line
E-------------------------------------------------------------------------------|
B-------------------------------------------------------------------------------|
G----------------------------------------------------5--5-----------------------|
D--5--5-------3----5--5--------3----------3--3-------5--5-------5--5-------3----|
A--5--5-3-4-5---5--5--5--3-4-5---5--------3--3-------3--3-------5--5-3-4-5---5--|
E--3--3------------3--3-------------------1--1------------------3--3------------|

Pre-Chorus:

Gotta love whatcha doin' here Cross the line til' you get yer share
E--------------------------------------------------------------------|
B--------------------------------------------------------------------|
G-------------------5------------------------------------------------|
D--3---3---3---3----5---5-------3---3---3---3---3---3---3-----5------|
A--3---3---3---3----3---5-------3---3---3---3---3---3---3-----5------|
E--1---1---1---1--------3-------1---1---1---1---1---1---1-----3------|

You paid the price but it ain't that fair
E--------------------------------------------4------6-------|
B----------------------------------------------5------7-----|
G-------------------------------5----------------4------6---|
D--3---3---3---3---3---3--------5--5------------------------|
A--3---3---3---3---3---3--------3--5------------------------|
E--1---1---1---1---1---1-----------3------------------------|

Chorus:

Blasting out all our vibes We are the future tribe
E---------------------------------------------------|
B---------------------------------------------------|
G---------------------------------------------------|
D--5----5----5----5----5----5----5----5----5----5---|
A--5----5----5----5----5----5----5----5----5----5---|
E--3----3----3----3----3----3----3----3----3----3---|

A ray of light, flashing in yer eyez
E------------------------------------|
B------------------------------------|
G--8--------------10-----------------|
D--8------8-------10------10-8-------|
A--6------8-------8-------10-8-------|
E---------6---------------8--6-------|

Passion of antichrist Bursting in flames tonight
E---------------------------------------------------|
B---------------------------------------------------|
G---------------------------------------------------|
D--5----5----5----5----5----5----5----5----5----5---|
A--5----5----5----5----5----5----5----5----5----5---|
E--3----3----3----3----3----3----3----3----3----3---|

A way of life, pissing on yer lies
E------------------------------------|
B------------------------------------|
G--8--------------10-----------------|
D--8------8-------10------5--5-------|
A--6------8-------8-------5--5-------|
E---------6---------------3--3-------|

Solo rythm guitar:

it might be something like this but im not soure.
E--------------------|
B--------------------|
G--------------------|
D--5--5--------3-----|
A--5--5--3-4-5---5---|
E--3--3--------------|

Bridge:

E----------------------------------------------------------|
B----------------------------------------------------------|
G------3--------------3--------------3----------5----------|
D--3-5-3-5-3-5----3-5-3-5-3-5----3-5-3-5-3-5----5-2-3-4----|
A--3-5-1-5-3-5----3-5-1-5-3-5----3-5-1-5-3-5----3-2-3-4----|
E--1-3---3-1-3----1-3---3-1-3----1-3---3-1-3------0-1-2----|

Outro chorus:

Blasting out all our vibes We are the future tribe
E---------------------------------------------------|
B---------------------------------------------------|
G---------------------------------------------------|
D--5----5----5----5----5----5----5----5----5----5---|
A--5----5----5----5----5----5----5----5----5----5---|
E--3----3----3----3----3----3----3----3----3----3---|

A ray of light, Hey, Now you on your own
E---------------------------------------|
B---------------------------------------|
G--8--------------------------5-----3---|
D--8------8------3--3---------5-----3---|
A--6------8------3--3---------3-----1---|
E---------6------1--1-------------------|

Passion of antichrist Bursting in flames tonight
E---------------------------------------------------|
B---------------------------------------------------|
G---------------------------------------------------|
D--5----5----5----5----5----5----5----5----5----5---|
A--5----5----5----5----5----5----5----5----5----5---|
E--3----3----3----3----3----3----3----3----3----3---|

A way of life, do it on you own
E-----------------------------------|
B-----------------------------------|
G--8--------------10----------------|
D--8------8-------10-------10-8-----|
A--6------8-------8--------10-8-----|
E---------6----------------8--6-----|

Blasting out all our vibes We are the future tribe
E---------------------------------------------------|
B---------------------------------------------------|
G---------------------------------------------------|
D--5----5----5----5----5----5----5----5----5----5---|
A--5----5----5----5----5----5----5----5----5----5---|
E--3----3----3----3----3----3----3----3----3----3---|

A ray of light, flashing in yer eyez
E------------------------------------|
B------------------------------------|
G--8--------------10-----------------|
D--8------8-------10------10-8-------|
A--6------8-------8-------10-8-------|
E---------6---------------8--6-------|

Passion of antichrist Bursting in flames tonight
E---------------------------------------------------|
B---------------------------------------------------|
G---------------------------------------------------|
D--5----5----5----5----5----5----5----5----5----5---|
A--5----5----5----5----5----5----5----5----5----5---|
E--3----3----3----3----3----3----3----3----3----3---|

A way of life, pissing on yer lieeeeeeeeeeeeeeeeeeeeeeeeeeeeeeeeeeeeeeeeeeeeeeeeeesss
E-----------------------------------------------------------------|
B-----------------------------------------------------------------|
G--8--------------10-7--------------------------------------------|
D--8------8-------10-7----5--5-------3----5--5-------3----5-------|
A--6------8-------8--5----5--5-3-4-5---5--5--5-3-4-5---5--5-------|
E---------6---------------3--3------------3--3------------3-------|
Tap to rate this tab
 
# A B C D E F G H I J K L M N O P Q R S T U V W X Y Z