Crashdiet - Knokk Em Down tab

Crashdiet - Knokk em Down

I dont know the whole song but since there is no tab of it 
i tought id put up what i could play

On the record (Rest in Sleaze) its tuned: Eb tuning/ half step down

When they play it live they play the same thing but in: D tuning/ 1 step down/ DGCFAD


Intro:
I kind of don't know the whole intro but its something like this

E---------------------------|
B---------------------------|
G---------7-5----7-9----5---|
D--5-2----7-5----7-9----5---|
A--5-2----5-3----5-7----3---|
E--3-0----------------------|

i dont know the rest of the intro or the verse but ist i know its in the key of "E"

Pre-Chorus:

     there aint on playing  just working no more  so belive me when I say this
E-------------------------------------------------------------------------------|
B-------------------------------------------------------------------------------|
G---------------------------------------------------------------------5---5-----|
D--5/7--7--7--7--7--7----5/7--7--7--7--7-----7/9--9--9--9--9--9-------5---5-----|
A--5/7--7--7--7--7--7----5/7--7--7--7--7-----7/9--9--9--9--9--9-------3---3-----|
E--3/5--5--5--5--5--5----3/5--5--5--5--5-----5/7--7--7--7--7--7-----------------|

Chorus:

  they line you up, they knock yo down you're forced to feed 'em day n' nite
E--------------------------------------------------------------------|
B--------------------------------------------------------------------|
G-----------------------9--7-----------------------------------------|
D---2---5---7-----------9--7-----------------7-------9-------7-------|
A---2---5---7-----------7--5-----------------7-------9-------7-------|
E---0---3---5--------------------------------5-------7-------5-------|

now is that how you want it...NO!!! what ya gonna do about it...
E------------------------------------------------------------|
B------------------------------------------------------------|
G----5--------------7-----------------5-----------------7----|
D----5--------------7-----------------5-----------------7----|
A----3--------------5-----------------3-----------------5----|
E------------------------------------------------------------|

  well line 'em up and knock 'em down coz you got balls and that's no crime
E--------------------------------------------------------------------|
B--------------------------------------------------------------------|
G-----------------------9--7-----------------------------------------|
D---2---5---7-----------9--7-----------------7-------9-------7-------|
A---2---5---7-----------7--5-----------------7-------9-------7-------|
E---0---3---5--------------------------------5-------7-------5-------|

if you really don't like it just show 'em you strike it back
E-----------------------------------------------------------|
B-----------------------------------------------------------|
G----5--------------7------------5-----------------7--------|
D----5--------------7------------5-----------------7--------|
A----3--------------5------------3-----------------5--------|
E-----------------------------------------------------------|

Thats all i know :)
Tap to rate this tab
 
# A B C D E F G H I J K L M N O P Q R S T U V W X Y Z