Song name
# A B C D E F G H I J K L M N O P Q R S T U V W X Y Z

Crashdiet - Down With The Dust tab

Down With the Dust - Crashdiet (Generation Wild)

On the record its i Eb tuning/ half step down
When they play it live they play the same thing but in D tuning/ 1 step down/ DGCFAD

Intro:

E-----------------------------------------------------------------------------------------|
B-----------------------------------------------------------------------------------------|
G--9-----------5-----------7-----------5-----------9-----------5-----------7-----------5--|
D--9-----------5-----------7-----------5-----------9-----------5-----------7-----------5--|
A--7-----------3-----------5-----------3-----------7-----------3-----------5-----------3--|
E----0-0-0-0-0---0-0-0-0-0---0-0-0-0-0---0-0-0-0-0---0-0-0-0-0---0-0-0-0-0---0-0-0-0-0----|

E--------------------------------------------------------------------------------------|
B--------------------------------------------------------------------------------------|
G-----------------9-9--7/9/7--5---9-9----------------9-9--7/9/7--5--9-9----------------|
D--------2--4-5---9-9--7/9/7--5---9-9-10-9-7---------9-9--7/9/7--5--9-9--------2--4-5--|
A--2-4-5----------7-7--5/7/5--3---7-7--------10-9-7--7-7--5/7/5--3--7-7--2-4-5---------|
E--------------------------------------------------------------------------------------|

Vers:

E-----------------------------------------------------------------------------------------|
B-----------------------------------------------------------------------------------------|
G--9-----------7-----------5-----------7-----------------------7-----------5-----------7--|
D--9-----------7-----------5-----------7-----------------------7-----------5-----------7--|
A--7-----------5-----------3-----------5-----------------------5-----------3-----------5--|
E----0-0-0-0-0---0-0-0-0-0---0-0-0-0-0---0-0-0-0-0-0-0-0-0-0-0---0-0-0-0-0---0-0-0-0-0----|

Pre-Chorus:

E--------------------------------------------------|
B--10---------------10-----------------------------|
G--9---10--9---7----9---10--9---5---7-7-7-7-7-7-7--|
D--7---10--9---7----7---10--9---5---7-7-7-7-7-7-7--|
A------9---7---5--------9---7---3---5-5-5-5-5-5-5--|
E--------------------------------------------------|

Chorus:
E-----------------------------------------------------------------------|
B-----------------------------------------------------------------------|
G---9-9--7/9/7--5---9-9----------------9-9--7/9/7--5--9-9---------------|
D---9-9--7/9/7--5---9-9-10-9-7---------9-9--7/9/7--5--9-9-------2--4-5--|
A---7-7--5/7/5--3---7-7--------10-9-7--7-7--5/7/5--3--7-7-2-4-5---------|
E-----------------------------------------------------------------------|

Rythm guitar in the solo is the pre-chorus and the chorus

Solo:
(this is only the first part i dont know the rest yet)

E---------------------------------------------------------------|
B-------------------------------------------------------15b-15--|
G---11b-9---11b-9---11b-9--9-11---11b-9---11b-9---11b-----------|
D---------------------------------------------------------------|
A---------------------------------------------------------------|
E---------------------------------------------------------------|

/ = slide
B = bend
Tap to rate this tab
 
# A B C D E F G H I J K L M N O P Q R S T U V W X Y Z