Song name
# A B C D E F G H I J K L M N O P Q R S T U V W X Y Z

Crashdiet - Chemical tab

Chemical - Crashdiet (Generation Wild)

On the record: Eb Tuning/ half step down
Live: D tuning/ 1 step down/ DGCFAD

Intro:

part 1
E--2-2-2-2-2-2-2-2-----|
B--3-3-3-3-3-3-3-3-----|
G--2-2-2-2-2-2-2-2-----|
D--0-0-0-0-0-0-0-0-----|
A----------------------|
E----------------------|

part 2

Guitar 1 (Clean)
E------------------------------------3--------|
B----------------------------------3---3---3--|
G----0--0-----0--0-----0--0------2-------2----|
D-----------------------------0---------------|
A--3--3--3--2--2--2--1--1--1------------------|
E---------------------------------------------|

Guitar 2 (Dist)
E--3-------3-------3--------3-----|
B--3-------3-------3--------3-----|
G--0-------0-------0--------2-----|
D--x-------x-------x--------0-----|
A--3-------2-------1--------------|
E---------------------------------| x2

E--3-3-3-3-3-3--3-3-3-3-3-3--3-3-3-3-3-3--3-3-3-3-3-3-----|
B--3-3-3-3-3-3--3-3-3-3-3-3--3-3-3-3-3-3--3-3-3-3-3-3-----|
G--0-0-0-0-0-0--0-0-0-0-0-0--0-0-0-0-0-0--2-2-2-2-2-2-----|
D--x-x-x-x-x-x--x-x-x-x-x-x--x-x-x-x-x-x--0-0-0-0-0-0-----|
A--3-3-3-3-3-3--2-2-2-2-2-2--1-1-1-1-1-1------------------|
E---------------------------------------------------------| x2

Vers:

  D          G         Bb
E-----|   E--3--|   E-----|
B--7--|   B--3--|   B--3--|
G--7--|   G--0--|   G--3--|
D--7--|   D--0--|   D--3--|
A--5--|   A--2--|   A--1--|
E-----|   E--3--|   E-----|

D
Dont you know

it runs deep down in my bones
       G
And I want it now
          Bb
I need it now

D
Cant you see

this deep route misery
      G
that you inflict
             Bb
It makes me sick

Chorus:

Guitar 1 (Clean)
E------------------------------------3--------|
B----------------------------------3---3---3--|
G----0--0-----0--0-----0--0------2-------2----|
D-----------------------------0---------------|
A--3--3--3--2--2--2--1--1--1------------------|
E---------------------------------------------|

Guitar 2 (Dist)
E--3-3-3-3-3-3--3-3-3-3-3-3--3-3-3-3-3-3--3-3-3-3-3-3-----|
B--3-3-3-3-3-3--3-3-3-3-3-3--3-3-3-3-3-3--3-3-3-3-3-3-----|
G--0-0-0-0-0-0--0-0-0-0-0-0--0-0-0-0-0-0--2-2-2-2-2-2-----|
D--x-x-x-x-x-x--x-x-x-x-x-x--x-x-x-x-x-x--0-0-0-0-0-0-----|
A--3-3-3-3-3-3--2-2-2-2-2-2--1-1-1-1-1-1------------------|
E---------------------------------------------------------|

Bridge:
(i dont know what else to call it)

   All I need is another hit  yeah one last fix to keep the blues at bay
E--------------------------------------------------------------------------|
B--------------------------------------------------------------------------|
G--9--9--9--9--9--9--9--9--9--9--9--5--5--5--5--5--5--5--5--5--5--5--5--7--|
D--9--9--9--9--9--9--9--9--9--9--9--5--5--5--5--5--5--5--5--5--5--5--5--7--|
A--7--7--7--7--7--7--7--7--7--7--7--3--3--3--3--3--3--3--3--3--3--3--3--5--|
E--------------------------------------------------------------------------|

  All I need is another kick just one last kiss of death and Iíll be on my way
E--------------------------------------------------------------------------------|
B--------------------------------------------------------------------------------|
G--7--7--7--7--7--7--7--7--7--7--9--9--9--9--9--9--9--9--9--9--9--9--9--9--9--9--|
D--7--7--7--7--7--7--7--7--7--7--9--9--9--9--9--9--9--9--9--9--9--9--9--9--9--9--|
A--5--5--5--5--5--5--5--5--5--5--7--7--7--7--7--7--7--7--7--7--7--7--7--7--7--7--|
E--------------------------------------------------------------------------------|

   All I need is another hit  yeah one last fix to keep the blues at bay
E--------------------------------------------------------------------------|
B--------------------------------------------------------------------------|
G--9--9--9--9--9--9--9--9--9--9--9--5--5--5--5--5--5--5--5--5--5--5--5--7--|
D--9--9--9--9--9--9--9--9--9--9--9--5--5--5--5--5--5--5--5--5--5--5--5--7--|
A--7--7--7--7--7--7--7--7--7--7--7--3--3--3--3--3--3--3--3--3--3--3--3--5--|
E--------------------------------------------------------------------------|

  All I need is another kick  just one last fix of that feelgood chemical
E--------------------------------------------------------------------------|
B--------------------------------------------------------------------------|
G--7--7--7--7--7--7--7--7--7--7--9--9--9--9--9--9--9--9--9--9--9--9--9--9--|
D--7--7--7--7--7--7--7--7--7--7--9--9--9--9--9--9--9--9--9--9--9--9--9--9--|
A--5--5--5--5--5--5--5--5--5--5--7--7--7--7--7--7--7--7--7--7--7--7--7--7--|
E--------------------------------------------------------------------------|

im almost done with the solo it will be up soon :)
Tap to rate this tab
 
# A B C D E F G H I J K L M N O P Q R S T U V W X Y Z