Song name
# A B C D E F G H I J K L M N O P Q R S T U V W X Y Z

Crashdiet - Knokk Em Down tab

Here the solo for the song, i think it's 99% correct, but any corrections are 
welcome at the comments ;)

Eb|------------------------------------------------------------15b^^--------|
Bb|--15-------------15---15--------12p15--12p15--12p15--12p15-------17(b19)-|
Gb|--14b-14-12--12--14br-14br--14b------14-----14-----14-----14-------------|
Db|------------14-----------------------------------------------------------|
Ab|-------------------------------------------------------------------------|
Eb|-------------------------------------------------------------------------|


Eb|--------------------17b--17-15v------------------------------------------|
Bb|----8-8------10--10-----------------15-12--12----------------------------|
Gb|---9-9-----11--11------------------------14--14-12-14-12-14hb-12---------|
Db|-10------12-----------------------------------------------------14-------|
Ab|-------------------------------------------------------------------------|
Eb|-------------------------------------------------------------------------|

Eb|---17b-14-15-14-15-14-15-14--21-21b~~------------------------------------|
Bb|-------------------------------------------------------------------------|
Gb|-------------------------------------------------------------------------|
Db|-------------------------------------------------------------------------|
Ab|-------------------------------------------------------------------------|
Eb|-------------------------------------------------------------------------|

b = bend
v = vibrato
p = pull off
^^^ = up and down bend
(b) = play the note then bend
Tap to rate this tab
 
# A B C D E F G H I J K L M N O P Q R S T U V W X Y Z