Song name
# A B C D E F G H I J K L M N O P Q R S T U V W X Y Z

Crashdiet - Armageddon tab

it's not perfect, but i think it's way better than the others tab around there, enjoy (:

the tunning is half step down (Eb-Ab-Db-Gb-Bb-Eb)

Main riff:

Eb|-------------------------------|
Bb|-------------------------------|
Gb|------9------7------12------12-|
Db|------9------7------10------12-|
Ab|------7------------------------|
Eb|-0000---0000---0000----0000----|
Pm  ....   ....   ....    ....

Eb|--------------------------------|
Bb|--------------------------------|
Gb|------9------7------5---------7-|
Db|------9------7------5----5----7-|
Ab|------7-------------3----5----5-|
Eb|-0000---0000---0000---0--3--0---|
Pm  ....   ....   ....   .     .


Verse:

Guitar 1:

Eb|-------------------------------|
Bb|-------------------------------|
Gb|-------------------------------|
Db|-------------------------------|
Ab|-------------------------------|
Eb|0000000000000000000000000000000|
Pm ...............................

Guitar 2

Eb|-------------------------------|
Bb|-------------------------------|
Gb|-9--7--5--7--9----------7------|
Db|-9--7--5--7--9----5-----7------|
Ab|-7--5--3--5--7----5-----5------|
Eb|---------------0--3--0---------|
Pm                .     .

Eb|-------------------------------|
Bb|-------------------------------|
Gb|-9--7--5--7--9------7--5-------|
Db|-9--7--5--7--9------7--5-------|
Ab|-7--5--3--5--7------5--3-------|
Eb|-------------------------------|

Pre-Chorus:

Eb|------------------------------------------------------|
Bb|-8-xx-7-x-8--8-xx-7-x-8----10-xx-9-x-10--10-xx-9-x-10-|
Gb|-7-xx-7-x-7--7-xx-7-x-7----9--xx-9-x-9---9--xx-9-x-9--|
Db|-5-xx-5-x-5--5-xx-5-x-5----7--xx-7-x-7---7--xx-7-x-7--|
Ab|------------------------------------------------------|
Eb|------------------------------------------------------|


Eb|------------------------------------------------------|
Bb|-8-xx-7-x-8--8-xx-7-x-8----10-xx-9-x-10---------------|
Gb|-7-xx-7-x-7--7-xx-7-x-7----9--xx-9-x-9--4-4-4-4-4-4-4-|
Db|-5-xx-5-x-5--5-xx-5-x-5----7--xx-7-x-7--4-4-4-4-4-4-4-|
Ab|----------------------------------------2-2-2-2-2-2-2-|
Eb|------------------------------------------------------|
Pm                                         . . . . . . .

The chorus are the same notes of the main riff

Bridge:

Eb|------------------------------------------------------|
Bb|------------------------------------------------------|
Gb|-7--5------------------------------------------7-5--4-|
Db|-7--5------------------------------------------7-5--4-|
Ab|-5--3-------7p5------7p5-----7p5--7-5----------5-3--2-|
Eb|-------0000-----0000----0000----------7-5-5-3---------|
Pm        ....     ....    ....

Sorry but i don't have the solo D:
Tap to rate this tab
# A B C D E F G H I J K L M N O P Q R S T U V W X Y Z