Song name
# A B C D E F G H I J K L M N O P Q R S T U V W X Y Z

Crashdiet - Down With The Dust tab

Tab For:
Crashdiet - Down With The Dust

Legend:
. Palm muted
\ Slide down
/ Slide up
h Hammer On
p Pull off
b Bend
~ Let ring
x Skip string/note


INTRO
e|---------------------------------------------------------------------|
B|---------------------------------------------------------------------|
G|--------5-------7-------5-------------5-------7----------------------|
D|--------5-------7-------5-------------5-------7-----------------4-5--|
A|--------3-------5-------3-------------3-------5-------------5-7------|
E|--00000---00000---00000----0000000000---00000---00000-5-7-8----------|
    .....   .....   .....    ..........   .....   .....
MAIN RIFF
e|----------------------------------------------|
B|----------------------------------------------|
G|--12-12--11\12/11--9----12-12-----------------|
D|---X--X---X\-X/-X--X-----X--X---9-------------|
A|--10-10---9\10/-9--7----10-10-----10-7-9-10-7-|
E|----------------------------------------------|

e|---------------------------------------------|
B|---------------------------------------------|
G|--12-12--11\12/10--9----12-10----------------|
D|---X--X---X\-X/-X--X-----X--X------------4-5-|
A|--10-10---9\10/-9--7----10-10--------5-7-----|
E|-------------------------------5-7-8---------|

VERSE
e|--------------------------------------------------------8-7-|
B|--------------------------------------------------------8-7-|
G|--------7-------5-------7------------7-------5-------7--7-7-|  *2 Times!
D|--------7-------5-------7------------7-------5-------7------|
A|--------5-------3-------5------------5-------3-------5------|
E|--00000---00000---00000---0000000000---00000---00000--------|
    .....   .....   .....   ..........   .....   .....

PRE-CHORUS
e|-----------------------------------|
B|-----------------------------------|
G|-----------------------------------|
D|-----9---------7-4------5-2-2--2/4-|
A|--\7---10----5--------3------------|
E|-----------------------------------|

e|----------------------------------------|
B|----------------------------------------|
G|-----------------------------5-7777777--|
D|-----9---------7-4------5-2--5-7777777--|
A|--\7---10----5--------3------3-5555555--|
E|----------------------------------------|
                                  .....
CHORUS
e|----------------------------------------------|
B|----------------------------------------------|
G|--12-12--11\12/11--9----12-12-----------------|
D|---X--X---X\-X/-X--X-----X--X---9-------------|
A|--10-10---9\10/-9--7----10-10-----10-7-9-10-7-|
E|----------------------------------------------|

e|---------------------------------------------|
B|---------------------------------------------|
G|--12-12--11\12/10--9----12-10----------------|
D|---X--X---X\-X/-X--X-----X--X------------4-5-|
A|--10-10---9\10/-9--7----10-10--------5-7-----|
E|-------------------------------5-7-8---------|

VERSE
e|--------------------------------------------------------8-7-|
B|--------------------------------------------------------8-7-|
G|--------7-------5-------7------------7-------5-------7--7-7-|
D|--------7-------5-------7------------7-------5-------7------|
A|--------5-------3-------5------------5-------3-------5------|
E|--00000---00000---00000---0000000000---00000---00000--------|
    .....   .....   .....   ..........   .....   .....
e|--------------------------------------------------------8-7-|
B|--------------------------------------------------------8-7-|
G|--------7-------5-------7------------7-------5-------7--7-7-|
D|--------7-------5-------7------------7-------5-------7------|
A|--------5-------3-------5------------5-------3-------5------|
E|--00000---00000---00000---0000000000---00000---00000--------|
    .....   .....   .....   ..........   .....   .....
PRE-CHORUS
e|-----------------------------------|
B|-----------------------------------|
G|-----------------------------------|
D|-----9---------7-4------5-2-2--2/4-|
A|--\7---10----5--------3------------|
E|-----------------------------------|

e|----------------------------------------|
B|----------------------------------------|
G|-----------------------------5-7777777--|
D|-----9---------7-4------5-2--5-7777777--|
A|--\7---10----5--------3------3-5555555--|
E|----------------------------------------|
                                  .....

CHORUS
e|---------------------------------------------|
B|---------------------------------------------|
G|--12-12--11\12/11--9----12-12----------------|
D|---X--X---X\-X/-X--X-----X--X--9-------------|
A|--10-10---9\10/-9--7----10-10----10-7-9-10-7-|
E|---------------------------------------------|

e|--------------------------------------------------------------|
B|--------------------------------------------------------------|
G|--12-12--11\12/10--9----12-10---------------------------------|
D|---X--X---X\-X/-X--X-----X--X------------4-5--------------6-7-|
A|--10-10---9\10/-9--7----10-10--------5-7--------------7-9-----|
E|-------------------------------5-7-8-----------7-9-10---------|

SOLO
e|-------------------------------------------------------|
B|------------------------------------------------16-15b-|
G|--11b-9--11b-9--11b-9-9\11~---11b-9--11b-9-11b---------|
D|-------------------------------------------------------|
A|-------------------------------------------------------|
E|-------------------------------------------------------|

e|--------------------------------------------|
B|-----18p17---18p17---18p17---18p17---18p17--|
G|--\18------18------18------18------18-------|
D|--------------------------------------------|
A|--------------------------------------------|
E|--------------------------------------------|

e|--\19-17-15h17-14-15-14-------------|
B|------------------------15-15\17b~--|
G|------------------------------------|
D|------------------------------------|
A|------------------------------------|
E|------------------------------------|

e|----------------------------------------------|
B|------------18-16-----9-12----10----\9-10-9---|
G|------18-16-------18--9----10----9----------9-|
D|--\16-----------------------------------------|
A|----------------------------------------------|
E|----------------------------------------------|

e|---------------------------------------------|
B|-----------------9----9-10-9-10\12b-12b-12b~-|
G|-------9----9-11---11------------------------|  *alternate picking 
D|--9-11---11----------------------------------|   and slighly palm muted,
A|---------------------------------------------|   except the last bends
E|---------------------------------------------|   on the 21th fret.

LAST CHORUS
e|--8-8--7h8p7-5--8-8---------------|
B|--8-8--7h8p7-5--8-8---------------|
G|--7-7--7-----5--7-7---------------|  *4 Times!
D|--------------------9-------------|
A|----------------------10-7-9-10-7-|
E|----------------------------------|


Hope you liked it, and can play along with the song.

Keep Rocking,
Berry
Tap to rate this tab
 
# A B C D E F G H I J K L M N O P Q R S T U V W X Y Z