Song name
# A B C D E F G H I J K L M N O P Q R S T U V W X Y Z

Crashdiet - Riot In Everyone tab

                                  
      
                       Crash Diet - Riot in Everyone ! by Robban           
 (half tunestep down)    
                                             
 Pm         Intro      
 |-----------------------------------------------------|
 |-----------------------------------------------------|
 |------------5---7------------------------------------|       
 |------2-----5---7------------------------------------|
 |--222-2-222-3---5------------------------------------| 
 |--000-0-000---0--------------------------------------|
     
 (Gtr2)         
 G#|--10-10-10-9-10-10----10-10-10-9-10-7--7h9h10-12-14-|(1 time)  
 Eb|----------------------------------------------------|  
   |----------------------------------------------------|
   |----------------------------------------------------|
   |----------------------------------------------------|
   |----------------------------------------------------|
   |----------------------------------------------------|

      


pre chorus

|-------------------------------------|
|-------------------------------------|
|----9----5----------7----5----7----5-|
|----9----5---5---5--7----5----7----5-|
|----7----3-33-333-3-5----3----5----3-|
|-----------pm----pm------------------|



Chorus
|-----------------------------------------------------------------------|
|-----------------------------------------------------------------------|
|-999--555--777------------555--777--888--999--555---777---------5---7--|
|-999--555--777--777--222--555--777--888--999--555---777---777---5---7--|
|-777--333--555--777--222--333--555--666--777--333---555---777---3---5--|
|----------------555--000----------------------------------555----------|
 
 (And then repeat intro)
     
 play after chorus2                       (before the solo)
 |-------------------------------------|
 |-------------------------------------|
 |---9-----7-----5--4------------------|
 |---9--9--7--7--5--4--2---------------|
 |---7--9--5--7--3--2--2---------------|
 |------7-----5--------0---------------|

              
     Rythm guitar while solo plays

|--------------------------------------------------------------------------|
|-----------8-----6-----5--------8-----6-----5-6---------------------------|
|-----2-----7-----5-----4--2-----7-----5-----4-5-2-------5---2---5---7---8-|
|-----2-----5-----3-----2--2-----5-----3-----2-3-2-------5---2---5---7---8-|
|-----000000-00000-00000-02000000-00000-00000-0-00----2--3---0---3---5---6-|
|-----pm------------pm----0--------pm---------pm------0--------------------|



 |-------------------------------------|
 |-7--------3--------5-----------------|
 |-9--------5--------7--------5--------|
 |-9--------5--------7--------7--------|  (4 times)
 |-7--------3--------5--------7--------|
 |----------------------------5--------|
  our time, our ways....  
    
    
 Outro  
 |-------------------------------------|
 |-------------------------------------|
 |----------5----7----9-9--------------|
 |-----7----5----7----9-9--------------|  
 |-----7----3----5----7-7--------------|
 |-----5-------------------------------|
      
 enjoy!                  
                  Lyrics
     they think they can hold us down forever.. 
     but no one can beat us out of phase.. 
     we live hard, creatin all the terror.. 
     the government is shaded by our craze.. 

     wont take shit from no one 
     breakin free, never stop.. 
     livin rabid in the everland .. 

     oooo we`re the kids of the underground 
     ohoh there`s a riot in everyone 
     we`re the kids of the underground 
     and we`re loud as we tear`em down 
     oooo we`re the kids of the underground 
     ohoh theres a feelin you cant deny 
     there`s a feelin you cant deny.. 
     coz`theres a riot in everyone.. 

     they say you shall live as you are told to 
     i say you gotta be strong and make up your own mind 
     be your self not a puppet in their freakshow 
     coz thats the way youll end up when they beat you blind 

     wont take shit from anyone (NO ONE) 
     never played by the rules 
     coz we`re the kids of the underground... 

     our time, our ways, we`re the wasted generation 
     our life, we pay, with our nasty reputation 
     we will always be living free 
     always on top of the misery 
     to live hard is a luxury 
     and to die of our prophecy
Tap to rate this tab
 
# A B C D E F G H I J K L M N O P Q R S T U V W X Y Z