Guitaretab - guitar tabs
Song name
# A B C D E F G H I J K L M N O P Q R S T U V W X Y Z

Crashdiet - In The Raw tab

                                   |
                                   |
Song: In The Raw                   |
                                   |
Artist:Crashdet                   |
                                   |
Album: The Unattractive Revolution |
                                   |
Tuning: Dropped D                  |
------------------------------------


This is how it sounds like when I play it using this tab

http://www.youtube.com/watch?v=uLxyyfJ-Pes

I tabbed it by ear so i'm not sure if it's right but at least it sounds  right :)
----------------------------------------------------------------------------



intro riff (repeatx4)
e/ |----------------------------------------------------|
B/ |----------------------------------------------------|
G/ |----------------------------------------------------|
D/ |-0--5--7--4--5--7--0-3--5-----0--5--7--4--5--7--0--7|
A/ |-0--5--7--4--5--7--0-3--5-----0--5--7--4--5--7--0--7|
D/ |-0--5--7--4--5--7--0-3--5-----0--5--7--4--5--7--0--7|


Verse 1
e/ |--------------------------------------------------------|
B/ |--------------------------------------------------------|
G/ |-7-7--5-5--9-9--5-5--5-5-7--7-7--5-5--10--10-5-5--5-5-7-|
D/ |-7-7--5-5--9-9--5-5--5-5-7--7-7--5-5--10--10-5-5--5-5-7-|
A/ |-5-5--3-3--7-7--3-3--3-3-5--5-5--3-3--8---8--3-3--3-3-5-|
D/ |--------------------------------------------------------|



Short Bridge
e/ |-------------------------------------------------------|
B/ |-------------------------------------------------------|
G/ |-------------------------------------------------------|
D/ |-0--5--7--4--5--7--0-3--5-----0--5--7--4--5--7--0--8-10|
A/ |-0--5--7--4--5--7--0-3--5-----0--5--7--4--5--7--0--8-10|
D/ |-0--5--7--4--5--7--0-3--5-----0--5--7--4--5--7--0--8-10|


Chorus
e/ |----------------------------------|
B/ |----------------------------------|
G/ |----------------------------------|
D/ |-5-7-8--1-8-3--5-7-8--1-8-3--1-8-3|
A/ |-5-7-8--1-8-3--5-7-8--1-8-3--1-8-3|
D/ |-5-7-8--1-8-3--5-7-8--1-8-3--1-8-3|


Verse 2

e/ |-------------------------------------|
B/ |-------------------------------------|
G/ |-------------------------------------|
D/ |12-12--10-10--14-14--10-10--10-10-12-|
A/ |-------------------------------------|
D/ |-------------------------------------|




e/ |-------------------------------------|
B/ |-------------------------------------|
G/ |-------------------------------------|
D/ |-12-12--10-10--15-15--10-10--10-10-12|
A/ |-------------------------------------|
D/ |-------------------------------------|




[ Tab from: http://www.guitaretab.com/c/crashdiet/97525.html ]
e/ |----------------------------------|
B/ |----------------------------------|
G/ |12-12-10-10--12--12-10-10--10--10-|
D/ |-8--8--8-8---8---8--8--8---8---8--|
A/ |----------------------------------|
D/ |----------------------------------|


e/ |----------------------------------|
B/ |------------10-10-10-10-10-10-----|
G/ |-10-10--9-9-----------------------|
D/ |-7--7---7-7--7--7--7--7--7-7------|
A/ |----------------------------------|
D/ |----------------------------------|


Bridge (repeatx2)
e/ |----------------------------------------|
B/ |----------------------------------------|
G/ |----------------------------------------|
D/ |-2--7--10--12---------------------------|
A/ |-2--7--10--12---------------------------|
D/ |-2--7--10--12---------------------------|

During The Solo One Guitar In The Back Is Playing The Following:


e/ |----------------------------------|
B/ |----------------------------------|
G/ |-7--5--7--------------------------|
D/ |-7--5--7--------------------------|
A/ |-5--3--5--------------------------|
D/ |----------------------------------|



Solo
e/ |-----------------------------------------------------------|
B/ |----------------------------13-10------13-10--13-10--------|
G/ |-2s-7--2s-10--2s12--2s-15--------12p-10------------12p-10--|
D/ |-----------------------------------------------------------|
A/ |-----------------------------------------------------------|
D/ |-----------------------------------------------------------|

e/ |--------------------------------------------------------------------|
B/ |-13-10--13-10------13-10------13-10--13-10------13-10--13-10--------|
G/ |-------------12p-10-----12p-10------------12p-10------------12p-10--|
D/ |--------------------------------------------------------------------|
A/ |--------------------------------------------------------------------|
D/ |--------------------------------------------------------------------|



e/ |-8---8----------------------|
B/ |-8b-8b--13b--13b----------|
G/ |----------------------------|
D/ |----------------------------|
A/ |----------------------------|
D/ |----------------------------|



Outro
e/ |----------------------------------------------------------------|
B/ |----------------------------------------------------------------|
G/ |--7-7--5--7-7---------------------------------------------------|
D/ |--7-7--5--7-7---------------------------------------------------|
A/ |--5-5--3--5-5---------------------------------------------------|
D/ |----------------------------------------------------------------|



Related for In The Raw tab