Song name
# A B C D E F G H I J K L M N O P Q R S T U V W X Y Z

Crass - Youve Got Big Hands tab

Help us improve GuitareTab! Take a short survey!
-----------------------------------------------------------------
You've Got Big Hands - Crass
-----------------------------------------------------------------
Tabbed by: Dillon
Email: Angelic_oioi_upstart@yahoo.com

Tuning:Standard

Intro and First Verse:
e|---------------------------------------------------------------|
B|---------------------------------------------------------------|
G|-7--5--2--7----------------------------------------------------|
D|-7--5--2--7----------------------------------------------------|
A|-5--3--0--5----------------------------------------------------|
E|---------------------------------------------------------------|

Second Verse:
e|---------------------------------------------------------------|
B|---------------------------------------------------------------|
G|-77777777-10101010-555-----------------------------------------|
D|-77777777-10101010-555-----------------------------------------|
A|-55555555--8-8-8-8-333-----------------------------------------|
E|---------------------------------------------------------------|

Third Verse:
e|---------------------------------------------------------------|
B|---------------------------------------------------------------|
G|-77777777-7/10-1010-8-5555-------------------------------------|
D|-77777777-7/10-1010-8-5555-------------------------------------|
A|-55555555-5/-8--8-8-6-3333-------------------------------------|
E|---------------------------------------------------------------|

| / slide up
| \ slide down
| h hammer-on
| p pull-off
| ~ vibrato
| + harmonic
| x Mute note

#----------------------------------PLEASE NOTE---------------------------------#
#This file is the author's own work and represents their interpretation of the #
#song. You may only use this file for private study, scholarship, or research. #
#------------------------------------------------------------------------------#
Related for Youve Got Big Hands tab