Song name
# A B C D E F G H I J K L M N O P Q R S T U V W X Y Z

Crass - Sucks tab

Crass
Feeding Of The 5000
Sucks.

Easy song to play.


Intro
--------                             -------------|
--------                             -------------|
--------                             -------------|
--------                             -------------|
--14----x alot of times              --9-10-11-12-|
--12----                   then play --7-8---9-10-|


Verse

---------------------------------------------------|
---------------------------------------------------|
---------------------------------------------------|
---------------------------------------------------|
--14-14-14-14-12-12-12-12-7-9-7-9-7-9-7-9-10-11-12-|
--12-12-12-12-10-10-10-10-5-5-5-5-5-5-5-7-8---9-10-|


Chorus

------------------------------|
------------------------------|
------------------------------|
------------------------------|
---14-14---12\14---14-14-12-7-|
---12-12---10\12---12-12-10-5-|

Hear the song and you'll get the timing right.
Tap to rate this tab
 
# A B C D E F G H I J K L M N O P Q R S T U V W X Y Z