Song name
# A B C D E F G H I J K L M N O P Q R S T U V W X Y Z

Crazy Antz - Dilbert tab

Crazy Antz
Dilbert

intro:(you know the rythm)
e---------------------------------------------------------------------|
B---------------------------------------------------------------------|
G---------------------------------------------------------------------|
D---------------------------------------------------------------------|
A---------------------------------------------------------------------|
E---5-0-5-0-5-0-5-0-2-4-5---------------------------------------------|
repeat till hands bleed

verse
e---------------------------------------------------------------------|
B---------------------------------------------------------------------|
G---------------------------------------------------------------------|
D---------------------------------------------------------------------|
A----7--7--2--11--5--5--5---------------------------------------------|
E----5--5--0--9---7--7--7---------------------------------------------|
repeat until friends threaten to kill you

chorus
e---------------------------------------------------------------------|
B---------------------------------------------------------------------|
G---------------------------------------------------------------------|
D---------------------------------------------------------------------|
A----7--x16---4--x16--------------------------------------------------|
E----5--------2-------------------------------------------------------|
repeat till you die


send any complaints, complements, or money to zapzero1979@juno.com
Tap to rate this tab
# A B C D E F G H I J K L M N O P Q R S T U V W X Y Z