Song name
# A B C D E F G H I J K L M N O P Q R S T U V W X Y Z

Crazy Heart - Fallin And Flyin tab

SONG: Fallin' And Flyin'
ARTIST: Collin Farrell and Jeff Bridges
WRITTEN BY: Stephen Bruton And Gary Nicholson

Standard Tunning: EADGBe

Capo 1st Fret


Full Measure chords are played as tabbed:

A	D	E
----0-0----0-0----|---2-2-----2--2---|---0--0----0--0---|
----2-2----2-2----|---3-3-----3--3---|---0--0----0--0---|
----2-2----2-2----|---2-2-----2--2---|---1--1----1--1---|
----2-2----2-2----|-0----------------|---2--2----2--2---|
-0----------------|---------0--------|-2----------------|
---------0--------|------------------|---------0--------|



Intro:  D A E A D
        D A E A D  E

      A			         A
I was goin' where I shouldn't go
D			  D
Seein' who I shouldn't see
E			 E
Doin' what I shouldn't do
    A			    A
And bein' who I shouldn't be

	 A			      A
A little voice told me it's all wrong
        D			  D
Another voice told me it's alright
  E			    E
I used to think I was strong
    A				E
But lately I just lost the fight

Chorus:
D         A       E          A
Funny how fallin' feels like flyin'
D          	D
 For a little while
D         A       E          A
Funny how fallin' feels like flyin'
D                    E
 For a little while

      A		         A
I got tired of bein' good
        D				D
Started missing that old feeling free
     E				    E
Stop actin' like I thought I should
    A			     A
And went on back to bein' me

  A			  A
I never meant to hurt no one
  D			 D
I just had to have my way
           E			    E
If there's such a thing as too much fun
A			     A
This must be the price you pay

Chorus:
D         A       E          A
Funny how fallin' feels like flyin'
D          	D
 For a little while
D         A       E          A
Funny how fallin' feels like flyin'
D		D
 For a little while
E                 A                D		D
 You never see it comin' till it's gone
E                     A           D		D
 It all happens for a reason even when it's wrong
  E
Especially when it's wrong


Solo: A D E A x2

(Repeat same riff twice)
	A				D
e--------------------------------------------------------|
B--------------------------------------------3--3---3---3|
G-----------2---2-------2---2----------------2--2---2h4-2|
D-----------2---2-------2h4-2------0---0--4-------4------|
A--0--0--4-----------4-----------------------------------|
E--------------------------------------------------------|

	E				A
---------------------------------------------------------|
---------------------------------------------------------|
---------------------------------------------------------|
-----------2--2--------2---2---------------------------2-|
-----------2--2--------2h4-2-----------2-4-2-0-------0-0-|
--0--0--4-----------4--------4--2--0------------2-0-2----|



Chorus:
D         A       E          A
Funny how fallin' feels like flyin'
D          	D
 For a little while
D         A       E          A
Funny how fallin' feels like flyin'
D                    E
 For a little while

      A				A
I was goin' where I shouldn't go
D			 D
Seein' who I shouldn't see
E			 E
Doin' what I shouldn't do
    A  (END STRUMMING 'A' CHORD)
And bein' who I shouldn't be
Tap to rate this tab
# A B C D E F G H I J K L M N O P Q R S T U V W X Y Z