Song name
# A B C D E F G H I J K L M N O P Q R S T U V W X Y Z

Crazy Loop - Love Is A Simple Thing tab

-----------------------------------------------------------------------------
		     Love Is A Simple Thing - Crazy Loop
-----------------------------------------------------------------------------

Tuning: Standard


Intro:

E|-----------------------0-----2-|
B|-------3-----------------------|
G|-----2-------2-------2-----2---|
D|---4-----------4---4-----------| X2
A|-5---------------5-------------|
E|-------------------------------|


Verse 1:

E|-------------------------------------------------------5-2-----|
B|-------3---------------3---------------3---------------------3-|
G|-----2-------2-------2-------2-------4-------4-------4---------|
D|---4-----------4---4-----------4---4-----------4---4-----------| X2
A|-5---------------5---------------2---------------2-------------|
E|---------------------------------------------------------------|


E|-------3---------------3---------------------------------------|
B|-----5-------5-------5-------5---------7---------------7-------|
G|---4-----------4---4-----------4-----7-------7-------6-------6-|
D|-2---------------2-----------------7-----------7---6-----------|
A|---------------------------------5---------------4-------------|
E|---------------------------------------------------------------|

   x x   x x x   x x x   x x x   x x x   x x x   x x x   x
E|-----------------------------------------------------------------|
B|-----------------------------------------------------------------|
G|-----7-------7-------7-------7-----------------------------------|
D|-----7-------7-------7-------7-------9-------9-------9-----------|
A|-5-5-5-5-5-5-5-5-5-5-5-5-5-5-5-5-----9-------9-------9---------5-|
E|---------------------------------7-7-7-7-7-7-7-7-7-7-7-7-7-5-7---|

   x x   x x x   x x x   x x x   x x x   x x x   x x 
E|-------------------------------------------------------------------|
B|-------------------------------------------------------------------|
G|-----7-------7-------7-------7-------------------------------11-11-|
D|-----7-------7-------7-------7-------9-------9-----9-9-9-7-7-11-11-|
A|-5-5-5-5-5-5-5-5-5-5-5-5-5-5-5-5-----9-------9-----9-9-9-7-7-9--9--|
E|---------------------------------7-7-7-7-7-7-7-7-7-7-7-7-5-5-------|


E|-------------------------------------------------------------------|
B|-------------------------------------------------------------------|
G|-9-9-9-9-9-9-9-9-9-9-9-9-9-9-9-9-7-7-7-7-7-7-7-7-----------------4-|
D|-9-9-9-9-9-9-9-9-9-9-9-9-9-9-9-9-7-7-7-7-7-7-7-7-4-4-4-4-4-4-4-4-4-|
A|-7-7-7-7-7-7-7-7-7-7-7-7-7-7-7-7-5-5-5-5-5-5-5-5-4-4-4-4-4-4-4-4-2-|
E|-------------------------------------------------2-2-2-2-2-2-2-2---|


Chorus:

E|-------------------------------------------------------|
B|-------------------------------------------------------|
G|-----------------------7-7-7-7-7-7-7-7-----------------|
D|-------5-5-5-5-5-5-5-5-7-7-7-7-7-7-7-7-4-4-4-4-4-4-4-4-|
A|-------5-5-5-5-5-5-5-5-5-5-5-5-5-5-5-5-4-4-4-4-4-4-4-4-|
E|-------3-3-3-3-3-3-3-3-----------------2-2-2-2-2-2-2-2-|


E|-----------------------------------------------------------------|
B|-----------------------------------------------------------------|
G|-4-4-4-4-4-4-4-4-----------------7-7-7-7-7-7-7-7-----------------|
D|-4-4-4-4-4-4-4-4-5-5-5-5-5-5-5-5-7-7-7-7-7-7-7-7-4-4-4-4-4-4-4-4-| X3
A|-2-2-2-2-2-2-2-2-5-5-5-5-5-5-5-5-5-5-5-5-5-5-5-5-4-4-4-4-4-4-4-4-|
E|-----------------3-3-3-3-3-3-3-3-----------------2-2-2-2-2-2-2-2-|


Verse 2:
   x x   x x x   x x x   x x x   x x x   x x x   x x x   x x x  x
E|-----------------------------------------------------------------|
B|-----------------------------------------------------------------|
G|-----7-------7-------7-------7-----------------------------------|
D|-----7-------7-------7-------7-------9-------9-------9-------9---|
A|-5-5-5-5-5-5-5-5-5-5-5-5-5-5-5-5-----9-------9-------9-------9---|
E|---------------------------------7-7-7-7-7-7-7-7-7-7-7-7-7-7-7-7-|

   x x   x x x   x x x   x x x   x x x   x x x   x x
E|-------------------------------------------------------------------|
B|-------------------------------------------------------------------|
G|-----7-------7-------7-------7-------------------------------11-11-|
D|-----7-------7-------7-------7-------9-------9-----9-9-9-7-7-11-11-|
A|-5-5-5-5-5-5-5-5-5-5-5-5-5-5-5-5-----9-------9-----9-9-9-7-7-9--9--|
E|---------------------------------7-7-7-7-7-7-7-7-7-7-7-7-5-5-------|


E|-------------------------------------------------------------------|
B|-------------------------------------------------------------------|
G|-9-9-9-9-9-9-9-9-9-9-9-9-9-9-9-9-7-7-7-7-7-7-7-7-----------------4-|
D|-9-9-9-9-9-9-9-9-9-9-9-9-9-9-9-9-7-7-7-7-7-7-7-7-4-4-4-4-4-4-4-4-4-|
A|-7-7-7-7-7-7-7-7-7-7-7-7-7-7-7-7-5-5-5-5-5-5-5-5-4-4-4-4-4-4-4-4-2-|
E|-------------------------------------------------2-2-2-2-2-2-2-2---|


Chorus:

E|-------------------------------------------------------|
B|-------------------------------------------------------|
G|-----------------------7-7-7-7-7-7-7-7-----------------|
D|-------5-5-5-5-5-5-5-5-7-7-7-7-7-7-7-7-4-4-4-4-4-4-4-4-|
A|-------5-5-5-5-5-5-5-5-5-5-5-5-5-5-5-5-4-4-4-4-4-4-4-4-|
E|-------3-3-3-3-3-3-3-3-----------------2-2-2-2-2-2-2-2-|


E|-----------------------------------------------------------------|
B|-----------------------------------------------------------------|
G|-4-4-4-4-4-4-4-4-----------------7-7-7-7-7-7-7-7-----------------|
D|-4-4-4-4-4-4-4-4-5-5-5-5-5-5-5-5-7-7-7-7-7-7-7-7-4-4-4-4-4-4-4-4-| X3
A|-2-2-2-2-2-2-2-2-5-5-5-5-5-5-5-5-5-5-5-5-5-5-5-5-4-4-4-4-4-4-4-4-|
E|-----------------3-3-3-3-3-3-3-3-----------------2-2-2-2-2-2-2-2-|


Solo:

E|-----------------------------------------------------------------|
G|-----------------------------------------------------------------|
B|-----------------------------------------------------------------|
D|-------------------------------------2-2-4-4---------------------|
A|-2-2-4-4-5-5-2-----------2-2---5---5---------5-5-------------4-4-|
E|---------------3---3-5-5-----3-------------------2-2-4-4-6-6-----|


E|-----------------------------------------------------------------|
G|-----------------------------------------------------------------|
B|-----------------------------------------------------------------|
D|-------------------------------------2-2-4-4---------------------|
A|-2-2-4-4-5-5-2-----------2-2---5---5---------5-5-----------------|
E|---------------3---3-5-5-----3-------------------2-2-2-2-2-2-2-2-|


Verse 3:
   x x x x x x x x x x x x x x x
E|-----------------------------------------------------------------|
B|-----------------------------------------------------------------|
G|-------------------------------4---4-4-4-4-4-4-4-4-4-4-4-4-4-4-4-|
D|-------------------------------4---4-4-4-4-4-4-4-4-4-4-4-4-4-4-4-|
A|-5-5-5-5-5-5-5-5-5-5-5-5-5-5-0-2---2-2-2-2-2-2-2-2-2-2-2-2-2-2-2-|
E|-----------------------------------------------------------------|

E|-----------------------------------------------------------------|
B|-----------------------------------------------------------------|
G|-7-7-7-7-7-7-7-7-7-7-7-7-7-7-7-4---4-4-4-4-4-4-4-4-4-4-4-2-2-----|
D|-7-7-7-7-7-7-7-7-7-7-7-7-7-7-7-4---4-4-4-4-4-4-4-4-4-4-4-2-2-4-4-|
A|-5-5-5-5-5-5-5-5-5-5-5-5-5-5-5-2---2-2-2-2-2-2-2-2-2-2-2-0-0-4-4-|
E|-------------------------------------------------------------2-2-|

E|-----------------------------------------------------------------|
B|-----------------------------------------------------------------|
G|-9-9-9-9-9-9-9-9-9-9-9-9-9-9-9-9-7-7-7-7-7-7-7-7-----------------|
D|-9-9-9-9-9-9-9-9-9-9-9-9-9-9-9-9-7-7-7-7-7-7-7-7-4-4-4-4-4-4-4-4-|
A|-7-7-7-7-7-7-7-7-7-7-7-7-7-7-7-7-5-5-5-5-5-5-5-5-4-4-4-4-4-4-4-4-|
E|-------------------------------------------------2-2-2-2-2-2-2-2-|


Chorus:
           x x x
E|-----------------------------------------------------------------|
B|-----------------------------------------------------------------|
G|-4---4---------------------------7-7-7-7-7-7-7-7-----------------|
D|-4---4---------5-5-5-5-5-5-5-5-5-7-7-7-7-7-7-7-7-4-4-4-4-4-4-4-4-|
A|-2---2---------5-5-5-5-5-5-5-5-5-5-5-5-5-5-5-5-5-4-4-4-4-4-4-4-4-|
E|---------2-2-2-3-3-3-3-3-3-3-3-3-----------------2-2-2-2-2-2-2-2-|


E|-----------------------------------------------------------------|
B|-----------------------------------------------------------------|
G|-4-4-4-4-4-4-4-4-----------------7-7-7-7-7-7-7-7-----------------|
D|-4-4-4-4-4-4-4-4-5-5-5-5-5-5-5-5-7-7-7-7-7-7-7-7-4-4-4-4-4-4-4-4-| X5
A|-2-2-2-2-2-2-2-2-5-5-5-5-5-5-5-5-5-5-5-5-5-5-5-5-4-4-4-4-4-4-4-4-|
E|-----------------3-3-3-3-3-3-3-3-----------------2-2-2-2-2-2-2-2-|

E|-----------|
B|-----------|
G|-4-------4-|
D|-4-------4-|
A|-2-------2-|
E|-----------|



************************************

| /   slide up
| \   slide down
| h   hammer-on
| p   pull-off
| ~   vibrato
| +   harmonic
| x   Mute note
| b   Bend
| pb  Pre-bend
| br  Bend release
| pbr Pre-bend release
| brb Bend release bend

************************************
Tap to rate this tab
 
# A B C D E F G H I J K L M N O P Q R S T U V W X Y Z