Song name
# A B C D E F G H I J K L M N O P Q R S T U V W X Y Z

Crazy Town - Hurt You So Bad tab

Drop C# tuning

^ - pull the string
18>20 - slide from 18th to 20th fret

SOLO part (it's not identical to album version but sounds very similar),
You'll have to work the timing out by yourself, but it won't be difficult :)

D#-22^-22--22-20-22-19-20-17-19-15-17-13-15-12--17-15-12--12-13-15--|
A#------------------------------------------------------------------|
F#------------------------------------------------------------------|
C#------------------------------------------------------------------|
G#------------------------------------------------------------------|
C#------------------------------------------------------------------|

D#-12-13-15--12-13-15--12-13-15--12-13---17--17-18-17-15-13-|
A#----------------------------------------------------------|
F#-------------------------------------14--14---------------|
C#----------------------------------------------------------|
G#----------------------------------------------------------|
C#----------------------------------------------------------|

D#-15-17-18-17-15-18>20-18-17-18-17-15-17-15-17-------------|
A#-------------------------------------------------7--------|
F#------------------------------------------------7---------|
C#-----------------------------------------------7----------|
G#----------------------------------------------------------|
C#----------------------------------------------------------|

The last three notes are harmonics (it's in the album version)-
Tap to rate this tab
# A B C D E F G H I J K L M N O P Q R S T U V W X Y Z