Song name
# A B C D E F G H I J K L M N O P Q R S T U V W X Y Z

Crazy Town - Butterfly tab

Butterfly
Crazy Town
The Gift of Game

This song is pretty simple as it is the same thing repeated over and over 
throughout. It is possible to pay with and without delay. Here’s how:

Delay
e|--------------10h12p10----|----------------|
B|-10~--13-10~--------------|-10~-----10-----|
G|--------------------------|------12--------|
D|--------------------------|-----------12~--|
A|--------------------------|----------------|
E|--------------------------|----------------|

Clean
e|--------------10h12p10-10h12p10----|---------------|
B|-10~--13-10~-----------------------|-10~----10-----|
G|-----------------------------------|-----12--------|
D|-----------------------------------|----------12~--|
A|-----------------------------------|---------------|
E|-----------------------------------|---------------|

You can experiment with bending and vibrato on both.

Basic Pattern
e|--------------10h12p10----|----------------|
B|-10~--13-10~--------------|-10~-----10-----|
G|--------------------------|------12--------|
D|--------------------------|-----------12~--| x3
A|--------------------------|----------------|
E|--------------------------|----------------|

e|--------------------------|
B|--------------------------|
G|--------------------------|
D|--------------------------|
A|--------------------------|
E|--------------------------|

e|--------------10h12p10----|----------------|
B|-10~--13-10~--------------|-10~-----10-----|
G|--------------------------|------12--------|
D|--------------------------|-----------12~--| x4
A|--------------------------|----------------|
E|--------------------------|----------------|

e|--------------------------|
B|--------------------------|
G|--------------------------|
D|--------------------------| x2
A|--------------------------|
E|--------------------------|

e|--------------10h12p10----|----------------|
B|-10~--13-10~--------------|-10~-----10-----|
G|--------------------------|------12--------|
D|--------------------------|-----------12~--| x3
A|--------------------------|----------------|
E|--------------------------|----------------|

e|--------------------------|
B|--------------------------|
G|--------------------------|
D|--------------------------| x2
A|--------------------------|
E|--------------------------|

e|--------------10h12p10----|----------------|
B|-10~--13-10~--------------|-10~-----10-----|
G|--------------------------|------12--------|
D|--------------------------|-----------12~--| x8 (Start to fade out on the
A|--------------------------|----------------|     8th line)
E|--------------------------|----------------|

Legend
h-Hammer-on
p-Pull-off
~-Let it ring

Tap to rate this tab
# A B C D E F G H I J K L M N O P Q R S T U V W X Y Z