Song name
# A B C D E F G H I J K L M N O P Q R S T U V W X Y Z

Crazy Town - Battle Cry tab

Db Ab Db Gb Bb Eb

intro
Eb|-----------------------------------------------|
Bb|----0---0---0---0----0----0----0----0----------|
Gb|--3---3---3---3(4)-3(4)-3(4)-3(4)-3(4)---------|
Db|-----------------------------------------------|
Ab|-----------------------------------------------|
Db|-----------------------------------------------|

main
Eb|-----------------------------------------------|
Bb|-----------------------------------------------|
Gb|-----------------------------------------------|
Db|--3-----3-----3-----3-----3--------------------|
Ab|----2-0---2-0---2-0---2-0----------------------|
Db|----2-0---2-0---2-0---2-0---2------------------|

Verse 1
Eb|-----------------------------------------------|
Bb|-----------------------------------------------| 
Gb|-----------------------------------------------|
Db|--3--3--3------3----3--3--3------3-------------| 
Ab|-----------------------------------------------| 
Db|----------2--2---2----------2--2---2-----------|

Pre Chorus
Eb|----------------------------|
Bb|----------------------------|
Gb|----------------------------|
Db|----------------------------|
Ab|--0-2-2-2-2-0-2-2-2-2-0-2-3-|
Db|--0-2-2-2-2-0-2-2-2-2-0-2-3-|

chorus 1
Eb|-----------------------------------------------| 
Bb|-----------------------------------------------| 
Gb|-----------------------------------------------| 
Db|-----------------------------------------------| 
Ab|-----------------------------------------------| 
Db|--222-111-000-333-22-11--222-111-000-333-22-11-| 

chorus 2
Eb|----------------------|
Bb|----------------------|
Gb|----------------------|
Db|----------------------|
Ab|--222-111-0-333-22-11-|
Db|--222-111-0-333-22-11-|

Verse 2
Eb|-----------------------------------------------|
Bb|-----------------------------------------------| 
Gb|-----------------------------------------------|
Db|-3-----3-----3-----3-----3-----3-----3-----3---| 
Ab|-----------------------------------------------|
Db|---2-0---2-----2-0---2-----2-0---2-----2-0---2-|
Tap to rate this tab
# A B C D E F G H I J K L M N O P Q R S T U V W X Y Z