Song name
# A B C D E F G H I J K L M N O P Q R S T U V W X Y Z

Crazy Town - Darkside tab

Help us improve GuitareTab! Take a short survey!
Tuning Drop D

Intro (Palm-Muted)
|---------------------------------|
|---------------------------------|
|---------------------------------|
|-7-7-7-7-7-7-7-7-7-7-7-7-777-777-|
|-7-7-7-7-7-7-7-7-7-7-7-7-777-777-|
|-5-5-5-5-5-5-5-5-5-5-5-5-555-555-|

Dreamlands of Danger...
|---------------------------|
|---------------------------|
|---------------------------|
|-8-7-4--4-4--4-4-4--4-4-4--|
|-8-7-4--4-4--4-4-4--4-4-4--|
|-8-7-4--4-4--4-4-4--4-4-4--|

Play the Above 3X Then Play This
|---------------------|
|---------------------|
|---------------------|
|-8-7--4-4--4-4--4-4--|
|-8-7--4-4--4-4--4-4--|
|-8-7--4-4--4-4--4-4--|

Verse
|-----------------------------------|
|-----------------------------------|
|-----------------------------------|
|-7-9-7--4-4--0-0--5-7-5--2-2-------|
|-7-9-7--4-4--0-0--5-7-5--2-2-------|
|-7-9-7--4-4--0-0--5-7-5--2-2-------|

Chorus
|-------------------|
|-------------------|
|-------------------|
|-222-2222-22-2222--|
|-222-2222-22-2222--|
|-222-2222-22-2222--|

|---------------------|
|---------------------|
|-888-------88888-----|
|-888-77668-88888-552-|
|-666-77668-66666-552-|
|-----77668-------552-|

2nd Chorus
Guitar 2 Play this part 3x then      Play this part once
|---13--14-13--------13--16----14-13|---13--14-13-11-13-9~~~~~~~~---|
|-12--12-----12----12--12-----------|-12--12------------------------|
|-----------------------------------|-------------------------------|
|-----------------------------------|-------------------------------|
|-----------------------------------|-------------------------------|
|-----------------------------------|-------------------------------|
Related for Darkside tab