Song name
# A B C D E F G H I J K L M N O P Q R S T U V W X Y Z

Cream - What A Bringdown tab

--------------------------------------------------------|
--------------------------------------------------------|
----------------------3--0------------------------3--0--|
---0--0--5--3--0--0-------------0--0--5--3--0--0--------|
--------------------------------------------------------|
--------------------------------------------------------|


--------------------------------------------------------|
--------------------------------------------------------|
----------------------3--0------------------------3--0--|
---0--0--5--3--0--0-------------0--0--5--3--0--0--------|
--------------------------------------------------------|
--------------------------------------------------------|
Tap to rate this tab
# A B C D E F G H I J K L M N O P Q R S T U V W X Y Z