Song name
# A B C D E F G H I J K L M N O P Q R S T U V W X Y Z

Cream - White Room tab

White Room
Performed By Cream
Released On "Disreali Gears"
______________________________
Intro:
Gm F Dm C Gm F Dm C Am7
----------------------------------------------------------------|
-----3----------3----------3-------3-5-------3--------3--3--3-5-|
-----2----------0----------0-------3-5-------2--------0--0--3-5-|
-----0----------0----------0-------3-5-------0--------0--0--3-5-|
----------------3----------2-------1-3----------------3--2--1-3-|
----------------------------------------------------------------|
In a white room with black curtains  near the station
Blackroof country,no gold pavements tired starlings
Silver horses ran down moonbeams in your dark eyes
Dawn-light smiled on you leaving my contentment

Chorus
-----0------------3----------------------------------|
-----1------------0---------------3---------2--------|
-----0------------0---------------3---------2--------|
-----2------------0---------------3---------2--------|
-----3------------2---------------1---------0--------|
-----3-----------------------------------------------|
I'll wait in this place where the sun never shines

-0------------------------------------------------0------|-------------|
-1-----------0---------------3--3----5--5---------7------|-------------|
-0-----------0---------------3--3----5--5---------7------|-----7-7---7-|
-2-----------0---------------3--3----5--5---------7------|-7h9-----9---|
-3-----------2---------------3--3----5--5---------7------|-------------|
---------------------------------------------------------|-------------|
Wait in this place where the shadows run from themselves

[On the guitar fills use a tremelo]
--------------------------------------------------------------|
--------3---------3--------3-------3-5------3-------3--3--3-5-|
--------2---------0--------0-------3-5------2-------0--0--3-5-|
--------0---------0--------0-------3-5------0-------0--0--3-5-|
------------------3--------2-------1-3--------------3--2--1-3-|
--------------------------------------------------------------|
You said no things could secure you  at the station[Guitar Fill 1]
Platform tickets,restless diesels,goodbye windows[Guitar Fill 2]
I walked into such a sad time at the station[Guitar Fill 3]
As I walked out,felt my own need just beginning[Guitar Fill 4]

Guitar Fill 1:
-------------------------------------|
-13-13-13-10-------------------------|
--------------12-10------------------|
--------------------12-10------------|
--------------------------12-10-8----|
----------------------------------10-|

Guitar Fill 2:
------------------------------------------------------|
-------10-------10-------10--------10-----------------|
-12-12b---12-12b---12-12b----12-12b---12-12b-12-10----|
---------------------------------------------------12-|
------------------------------------------------------|
------------------------------------------------------|

Guitar Fill 3:
--------------------------------------|
--------------------------------------|
-----10-12--10-12/14--17--14\12-10----|
--12------------------------------12--|
--------------------------------------|
--------------------------------------|

Guitar Fill 4:
[This riff is definately not 100 percent correct]
--------------------------------------------------|
-----------------------15p13h15----------12-15b-12|
-10(11)-----------15b-----------14----14----------|
--------12p10h12-------------------15-------------|
--------------------------------------------------|
--------------------------------------------------|

Chorus:
-----------------3---------------------------|
-----1-----------0------------3---------2----|
-----0-----------0------------3---------2----|
-----2-----------0------------3---------2----|
-----3-----------2------------1---------0----|
---------------------------------------------|
I'll wait in the que when the trains go back

-0-------------------------------------------0------|
-1--------0-------------3--3----5-5----------7------|
-0--------0-------------3--3----5-5----------7------|
-2--------0-------------3--3----5-5----------7------|
-3--------2-------------3--3----5-5----------7------|
----------------------------------------------------|
 Fly with you,where the shadows run from themselves

[Back to the intro]
Gm F Dm C Gm F Dm C Am7

----------------------------------------------------------|
------3----3--------3------3-5-----3----------3--3---3-5--|
------2----0--------0------3-5-----2----------0--0---3-5--|
------0----0--------0------3-5-----0----------0--0---3-5--|
-----------3--------2------1-3----------------3--2---1-3--|
----------------------------------------------------------|
At the party she was kindess in the hard crowd
Consolation for the old que now forgotten
Yellow tigers crouched in jungles,in the dark eyes
She's just dressing,goodbye windows,tired starlings

This solo goes throughout the entire 3rd verse
---------------------------------|
-13-10---------------------------|
-------12(14)-10----10-10--------|
-----------------12-------12-----|
---------------------------------|
---------------------------------|
                 2:46
-----------------16p15-16p15-----------------------14----|
-----15-15--17---------------15-------15-15--15-15----15-|
--16-------------------------------16--------------------|
---------------------------------------------------------|
---------------------------------------------------------|
---------------------------------------------------------|

----10-------10--------10--------------------------------------------|
-------13-------13--------13-----------------------------------------|
-12h------12-------12--------12--12p10h12--10---12-10--12-10-12------|
----------------------------------------------------------------12---|
---------------------------------------------------------------------|
---------------------------------------------------------------------|

----------------10----10---------------------------------
-------------13----13----13------------------------------
-10-12-10-------------------12(14)-12-10----10-12/14-----
----------12-----------------------------------------12--
---------------------------------------------------------
---------------------------------------------------------                                                  
------13----13-----13-----13-----13-----13-----13-----13-----13--|
-13h15--13h15--13h15--13h15--13h15--13h15--13h15--13h15--13h15---|
-----------------------------------------------------------------|
-----------------------------------------------------------------|
-----------------------------------------------------------------|
-----------------------------------------------------------------|

--------------------------------------10-----------------|
-13--------------------------------------13--------------|
----14p12--------------10----12-10-12-------14--12-14-12-|
----------15--12/10/12----12-----------------------------|
---------------------------------------------------------|
---------------------------------------------------------|

--------------------------------------|
--------------------------------------|
-10-12-10----10-12-10----10-12-10-----|
----------12----------12----------12--|
--------------------------------------|
--------------------------------------|

---------------------------------------------------------------------------|
-----------------------------------------------------13--10h13p10h13p10h13-|
-10~------------------10----12p10-----------10----10-----------------------|
------12p10-----10h12----12-------12p10--12----12--------------------------|
------------12-------------------------------------------------------------|
---------------------------------------------------------------------------|

-10--------------------------10----------------------------------------|
----13p10h13p10h13p10h13--13----13-10----10----------------------------|
--------------------------------------12----10-12-10-----------14-12---|
------------------------------------------------------12-10-12---------|
-----------------------------------------------------------------------|
-----------------------------------------------------------------------|

------------------------------------------------------10---------------------------|
----13---------------------------------------------------13-10---------------------|
-14----12(14)12-10----10-12-12(14)12--10----10-12(14)----------12(14)12-10----12---|
-------------------12--------------------12--------------------------------12---12-|
-----------------------------------------------------------------------------------|
-----------------------------------------------------------------------------------|

----------------------------------------------------------------------13----------|
-----------13--13-----13-----15h18--15h18--15-13-15-13h15--15--13h15--------------|
-10-12/14--14--14--14----14----------------------------------------------14p12----|
-------------------------------------------------------------------------------14-|
----------------------------------------------------------------------------------|
----------------------------------------------------------------------------------|

-------------------------------------------10---------------13h15p13-10h13p10----|
----------------------------------------13----13h15-15p13--------------------13--|
-10-12-10----------10----12-10---------------------------------------------------|
----------12-10-12----12-------12-10-12------------------------------------------|
---------------------------------------------------------------------------------|
---------------------------------------------------------------------------------|

-10--10-----10--10-------------------------------------------------|
---------13--------13----------------------------------------------|
----------------------12h14-14p12-10-12-10------------10----12-10--|
----------------------------------------------12-10-12----12-------|
-------------------------------------------------------------------|
-------------------------------------------------------------------|
 
--------------------------------------------|
--------------------------------------------|
-12h14--12--12h14--12--12h14--12--12h14--12-|
--------------------------------------------|
--------------------------------------------|
--------------------------------------------|
Tap to rate this tab
# A B C D E F G H I J K L M N O P Q R S T U V W X Y Z