Song name
# A B C D E F G H I J K L M N O P Q R S T U V W X Y Z

Cream - Strange Brew tab

Strange Brew - Cream - Eric Clapton

Tabbed by Kevin McNally
Standard Tuning
A major

h - hammer on/off
s - slide up to
b - bend


Intro Solo

|--3h5---|--3h5----------------|---------------------|------------------|
|--------|--------3b--3------3-|---------------------|------------------|
|--------|-------------5--5----|-5b----------7b-7h5--|------5-----------|
|--------|---------------------|---------------------|--7---------------|
|--------|---------------------|---------------------|------------------|
|--------|---------------------|---------------------|------------------|


|--8h5---|--8h5----5-----------|---------------------|------------------|
|--------|-----------8---------|---------------------|-10h13h10---------|
|--------|-------------7b-5-7--|-----------------s9--|------------------|
|--------|---------------------|---7-----------------|------------------|
|--------|---------------------|---------------------|------------------|
|--------|---------------------|---------------------|------------------|

 strange brew kill whats inside of you                           she's a
|------------|------------------------|------------5-----|--------------|
|------------|------------------------|------------------|--------------|
|------------|------------------------|--7b-----------8--|-7-5----------|
|------------|------------------------|------------------|-----7--------|
|------------|------------------------|------------------|-------7------|
|------------|------------------------|------------------|--------------|


Rhythmn Guitar
   witch of trouble
A7
|--------5------------------------|--------5----------------------------|
|--------8------------------------|--------8----------------------------|
|--------6------------------------|--------6----------------------------|
|--------5--------------5--5h7----|--------5----------------5--5h7------|
|--------7-----5h7----------------|--------7------5h7-------------------|
|--5--5--5------------------------|--5--5--5----------------------------|


D9					                                 A7
|--------5------------------------|--------5----------------------------|
|--------5------------------------|--------8----------------------------|
|--------5------------------------|--------6----------------------------|
|--------4--------------5--5h7----|--------5----------------5--5h7------|
|--5--5--5-----5h7----------------|--------7------5h7-------------------|
|---------------------------------|--5--5--5----------------------------|


                                     E7
|--------5------------------------|--------x----------------------------|
|--------8------------------------|--------8----------------------------|
|--------6------------------------|--------7----------------------------|
|--------5--------------5--5h7----|--------6----------------5--5h7------|
|--------7-----5h7----------------|--7--7--7------5h7-------------------|
|--5--5--5------------------------|-------------------------------------|


D9					                                A7
|--------x------------------------|--------5----------------------------|
|--------6------------------------|--------8----------------------------|
|--------5------------------------|--------6----------------------------|
|--------4--------------5--5h7----|--------5----------------5--5h7------|
|--5--5--5-----5h7----------------|--------7------5h7-------------------|
|---------------------------------|--5--5--5----------------------------|


Main Solo
                 A7
|---------------|------------|-------------------------|----------------|
|---------------|------------|-------------------------|----------------|
|--------17-19b-|------------|-----19b-19b----19h-17---|----------------|
|----s19--------|------------|--19------------------19-|----------------|
|---------------|------------|-------------------------|----------------|
|---------------|------------|-------------------------|----------------|

                         D7
|-----------------------|-----------------|-------5---------------------|
|-----------19b---17-15-|------------17---|-----5-----8-5---------------|
|-----------------------|-19-19-----------|--7b------------7b-7---------|
|-----------------------|-----------------|----------------------7h5h7--|
|-----------------------|-----------------|-----------------------------|
|-----------------------|-----------------|-----------------------------|

 A7                                            E7
|--------------------|------------------------|-------------------------|
|-----------------10-|-8--------------13--15--|-b13---b13---b13---b13---|
|-------------s9-----|----------s14-----------|-------------------------|
|--------------------|------------------------|-------------------------|
|--------------------|------------------------|-------------------------|
|--------------------|------------------------|-------------------------|

 D7                                     A7
|--------------------------------------|----------------5---------------|
|-b13---b13-------13h15h13-----15h13---|--------------------8h5---------|
|--------------------------------------|--14----------------------7--5--|
|--------------------------------------|--------------------------------|
|--------------------------------------|--------------------------------|
|--------------------------------------|--------------------------------|


 E7                                     
|---------------------------|
|---------------------------|
|---------------------------|
|---7--5--------------------|
|----------7----------------|
|---------------------------|
Tap to rate this tab
 
# A B C D E F G H I J K L M N O P Q R S T U V W X Y Z