Song name
# A B C D E F G H I J K L M N O P Q R S T U V W X Y Z

Cream - Sunshine Of Your Love tab

-------------------------------------------------------------------------------
                             Sunshine of your love - Cream (Disraeli Gears)
-------------------------------------------------------------------------------
Tabbed by: Bigfyt
E-mail: aussie_mulisha@hotmail.com

Tuning: Standard

hey this is my first tab thought i'd have a go at this awesome song, it is missing
the solo as i am still trying to get that.
The other tabs i don't think are 100%, Listen to the song for timing its pretty easy
Here it goes.

in the verse im pretty sure he goes up an octave once or twice,
but i am not sure in what part exactly.


Intro (1st two bars is bass guitar not eric)
G|----------------------------------------------------------------------------|
D|-12--12--10--12-------------------------------------------------------------|
A|-------------------12--11--10----8~~~---------------------------------------|
E|-----------------------------10--------10-----------------------------------|

(in the second part of the verse each time it is played there is a slight
variation on the last notes.
 variation is after the verse DON'T play it all together)

Verse [repeat x5]
e|------------------------------------------------------------------------|
B|------------------------------------------------------------------------|
G|-11-11--9---11----------------------------------------------------------|
D|-12-12--10--12----------------------------------------------------------|
A|-12-12--10--12--11/12--11--10-----8~~-----------------------------------|
E|-10-10--8---10----------------10------10--------------------------------|

e|---------------------------------------------------------------------------|
B|---------------------------------------------------------------------------|
G|-11-11--9---11-----------------12--10~~~-----------------------------------|
D|-12-12--10--12-----------------12------------------------------------------|
A|-12-12--10--12--11/12--11--10----------------------------------------------|
E|-10-10--8---10-------------------------------------------------------------|

[VARIATION]
e|---------------------------------------------------------------------------|
B|---------------------------------------------------------------------------|
G|-11-11--9---11-----------------12--10~~~-----------------------------------|
D|-12-12--10--12-----------------12--------12--------------------------------|
A|-12-12--10--12--11/12--11--10----------------------------------------------|
E|-10-10--8---10-------------------------------------------------------------|

[VARIATION]
e|---------------------------------------------------------------------------|
B|---------------------------------------------------------------------------|
G|-11-11--9---11-----------------12--10h12p10--------------------------------|
D|-12-12--10--12-----------------12-----------12-----------------------------|
A|-12-12--10--12--11/12--11--10----------------------------------------------|
E|-10-10--8---10-------------------------------------------------------------|

Chorus
e|--------------------|--------------------|---------------------------------|
B|--------------------|--------------------|---------------------------------|
G|--2--2-2----5-------|--2--2-2----5-------|--2--2-2----5--------------------|
D|--2--2-2----5---5---|--2--2-2----5---5---|--2--2-2----5---5----------------|
A|--0--0-0----3---5---|--0--0-0----3---5---|--0--0-0----3---5----------------|
E|----------------3---|----------------3---|----------------3----------------|

[crescendo, gradually get louder]
e|---------------------------------------------------------------------------|
B|---------------------------------------------------------------------------|
G|-2-2-2-2-2-2-2-2-|-2-2-2-2-2-2-2-2-----------------------------------------|
D|-2-2-2-2-2-2-2-2-|-2-2-2-2-2-2-2-2-----------------------------------------|
A|-0-0-0-0-0-0-0-0-|-0-0-0-0-0-0-0-0-----------------------------------------|
E|---------------------------------------------------------------------------|

Verse [repeat x5] (again variations on last notes)

e|------------------------------------------------------------------------|
B|------------------------------------------------------------------------|
G|-11-11--9---11----------------------------------------------------------|
D|-12-12--10--12----------------------------------------------------------|
A|-12-12--10--12--11/12--11--10-----8~~-----------------------------------|
E|-10-10--8---10----------------10------10--------------------------------|

e|---------------------------------------------------------------------------|
B|---------------------------------------------------------------------------|
G|-11-11--9---11-----------------12--10~~~-----------------------------------|
D|-12-12--10--12-----------------12------------------------------------------|
A|-12-12--10--12--11/12--11--10----------------------------------------------|
E|-10-10--8---10-------------------------------------------------------------|

Chorus
e|--------------------|--------------------|---------------------------------|
B|--------------------|--------------------|---------------------------------|
G|--2--2-2----5-------|--2--2-2----5-------|--2--2-2----5--------------------|
D|--2--2-2----5---5---|--2--2-2----5---5---|--2--2-2----5---5----------------|
A|--0--0-0----3---5---|--0--0-0----3---5---|--0--0-0----3---5----------------|
E|----------------3---|----------------3---|----------------3----------------|

[crescendo, gradually get louder]
e|---------------------------------------------------------------------------|
B|---------------------------------------------------------------------------|
G|-2-2-2-2-2-2-2-2-|-2-2-2-2-2-2-2-2-----------------------------------------|
D|-2-2-2-2-2-2-2-2-|-2-2-2-2-2-2-2-2-----------------------------------------|
A|-0-0-0-0-0-0-0-0-|-0-0-0-0-0-0-0-0-----------------------------------------|
E|---------------------------------------------------------------------------|


Solo 2:01-2:51 (am still working on it will update soon)
{continue playing verse underneath solo}
e|---------------------------------------------------------------------------|
B|----------------12--10--10-------------------------------------------------|
G|-12b--12b-------------------12-12-12-12b--------9b---r----7h9 9/11-9~~~~---|
D|-----------------------------------------------------7h9-------------------|
A|---------------------------------------------------------------------------|
E|---------------------------------------------------------------------------|

e|---------------------------------------------------------------------------|
B|-----------9br--9br--------------------------------------------------------|
G|------7h9--9br--9br--7h9p7---12br--12br--12br-13br--12br-------------------|
D|--7h9----------------------------------------------------------------------|
A|---------------------------------------------------------------------------|
E|---------------------------------------------------------------------------|

e|---------------------------------------------------------------------------|
B|---------------------------------------------------------------------------|
G|---------------------------------------------------------------------------|
D|---------------------------------------------------------------------------|
A|---------------------------------------------------------------------------|
E|---------------------------------------------------------------------------|


Verse [repeat x5] (again variations on last note)

e|------------------------------------------------------------------------|
B|------------------------------------------------------------------------|
G|-11-11--9---11----------------------------------------------------------|
D|-12-12--10--12----------------------------------------------------------|
A|-12-12--10--12--11/12--11--10-----8~~-----------------------------------|
E|-10-10--8---10----------------10------10--------------------------------|

e|---------------------------------------------------------------------------|
B|---------------------------------------------------------------------------|
G|-11-11--9---11-----------------12--10~~~-----------------------------------|
D|-12-12--10--12-----------------12------------------------------------------|
A|-12-12--10--12--11/12--11--10----------------------------------------------|
E|-10-10--8---10-------------------------------------------------------------|

Chorus
e|--------------------|--------------------|---------------------------------|
B|--------------------|--------------------|---------------------------------|
G|--2--2-2----5-------|--2--2-2----5-------|--2--2-2----5--------------------|
D|--2--2-2----5---5---|--2--2-2----5---5---|--2--2-2----5---5----------------|
A|--0--0-0----3---5---|--0--0-0----3---5---|--0--0-0----3---5----------------|
E|----------------3---|----------------3---|----------------3----------------|

e|--------------------|--------------------|
B|--------------------|--------------------|
G|--2--2-2----5-------|--2--2-2----5-------|
D|--2--2-2----5---5---|--2--2-2----5---5---|
A|--0--0-0----3---5---|--0--0-0----3---5---|
E|----------------3---|----------------3---|

Outro

e|--------|------------------------------------------------------------------|
B|--------|------------------------------------------------------------------|
G|--2--2--|------------------------------------------------------------------|
D|--2--2--|------------------------------------------------------------------|
A|--0--0--|------------------------------------------------------------------|
E|--------|------------------------------------------------------------------|

repeat once
e|-----------|-----------|-----------|-----------|---------------------------|
B|-----------|-----------|-----------|-----------|---------------------------|
G|-----------|-----------|-----------|-----------|---------------------------|
D|--2--4--2--|--4--2--4--|--2--4--2--|--4--2--4--|---------------------------|
A|--0--0--0--|--0--0--0--|--0--0--0--|--0--0--0--|---------------------------|
E|-----------|-----------|-----------|-----------|---------------------------|

Lyrics

It's gettin' near dawn,
 When lights close their tired eyes.
 I'll soon be with you my love,
 To give you my dawn surprise.
 I'll be with you darling soon,
 I'll be with you when the stars start falling.

I've been waiting so long
 To be where I'm going
 In the sunshine of your love.

I'm with you my love,
 The light's shinin' through on you.
 Yes, I'm with you my love,
 It's the morning and just we two.
 I'll stay with you darling now,
 I'll stay with you till my seeds are all dried up.

I've been waiting so long
 To be where I'm going
 In the sunshine of your love.



thats all please comment and rate
************************************

| /   slide up
| \   slide down
| h   hammer-on
| p   pull-off
| ~   vibrato
| +   harmonic
| x   Mute note
| b   Bend
| pb  Pre-bend
| br  Bend release
| pbr Pre-bend release
| brb Bend release bend

************************************
Tap to rate this tab
# A B C D E F G H I J K L M N O P Q R S T U V W X Y Z