Song name
# A B C D E F G H I J K L M N O P Q R S T U V W X Y Z

Cream - Sleepy Time Time tab

Cream - Sleepy Time Time
 Tab by aldo alain


|---------------------------------------------------------------------|
|------------4h5~--------------4h5~------------4h5~------------4h5~---|
|-----3---3--3---------3---3h5-3---------3---3-3---------3---3-3------|
|-3h5---5----------3h5---5-----------3h5---5---------3h5---5----------|
|---------------------------------------------------------------------|
|---------------------------------------------------------------------|

|---------------------------------------------------------------------|
|-------------4h5~-----------4---10b-10r-8----------------------------|
|-----3---3h5-3--------3---3-5---10b-10r-8----------------------------|
|-3h5---5----------3h5---5-------------------10---12---10---12---10---|
|------------------------------------------8--8--8-8--8-8--8-8--8-8---|
|---------------------------------------------------------------------|

|---------------------------------------------------------------------|
|---------------------------------------------------------------------|
|-----------------------------8h9-------------------------------------|
|---12----10h12-10-------8----8---------------------------------------|
|-8--8--8--8--------8-10---10--------12----10----12----10----12----10-|
|----------------------------------8--8--8--8--8--8--8--8--8--8--8--8-|

|---------------------------------------------------------------------|
|---------------------------------------------------------------------|
|---------------------------------------------------9-----------------|
|-10----12----10----12----10----12----10h12-10--------8---------------|
|--8--8--8--8--8--8--8--8--8--8--8--8--8-------8-10-----10----12----10|
|--------------------------------------------------------8--8--8--8--8|

|---------------------------------------------------------------------|
|---------------------------------------------------------------------|
|-----------------------8-------------------------------10-10-10-10-10|
|---------------------8---8h10-8----8h10-8----8h10------12-12-12-12-12|
|----12----10----8h10------------10--------10-------10~-10-10-10-10-10|
|--8--8--8--8--8------------------------------------------------------|

|-----------------------8---------------------------------------------|
|----11-11-10--9---------11-------------------------------------------|
|-10-10-10--9--8---10b------10br8----8h10--8----8h10p8b---------------|
|-12-12-12-11-10------------------10---------10---------10p8----------|
|-10-10-10--9--8---------------------------------------------10\8-6---|
|---------------------------------------------------------------------|

|---------------------------------------------------------------------|
|-----8---------------------------------------------------------------|
|-8-9--------------------8h9------------------8h9--------------8h9----|
|--------------8----8h10-8----------8----8h10-8---------8----8-8------|
|-------10--10---10------------8h10---10-----------8h10---10----------|
|---------------------------------------------------------------------|

|---------------------------------------------------------------------|
|-----------------10b-10r-8-------------------------------------------|
|--------------9--10b-10r-8-------------------------------------------|
|------8----8-10--------------10----12----10----12----10----12--------|
|-8h10---10-----------------8--8--8--8--8--8--8--8--8--8--8--8--8-----|
|---------------------------------------------------------------------|

|---------------------------------------------------------------------|
|---------------------------------------------------8-----------------|
|--------------------8h9----------------------------8h10-8~----------8|
|-10h12-10------8----8-------------------------------------10------8--|
|-8--------8-10---10--------12----10----12----10--------------8h10----|
|-------------------------8--8--8--8--8--8--8--8--8-------------------|

|---------------------------------------------------------------------|
|---------------------------------------------------------------------|
|------8----10-8------------------------------------------------------|
|-8h10---10------10----10----12----10----12----10----12----10h12-10---|
|-----------------------8--8--8--8--8--8--8--8--8--8--8--8--8---------|
|---------------------------------------------------------------------|

|---------------------------------------------------------------------|
|-----------------------------------------8-----------------------10--|
|-----------8h9---------------------------8h10-8-------------8----10--|
|------8----8-------------------------------------10----8h10---10-----|
|-8-10---10-------12----10----12----10---------------10---------------|
|---------------8--8--8--8--8--8--8--8--8-----------------------------|

|---------------------------------------------------------------------|
|------------------------------------11-11-10--9----------------------|
|-8~--------------10-10-10--10-10-10-10-10--9--8----------------------|
|----10----8------12-12-12--12-12-12-12-12-11-10----------------------|
|-------10---/10--10-10-10--10-10-10-10-10--9--8----------------------|
|---------------------------------------------------------------------|

|-----------------------8---------------------------------------------|
|-------------------------11----------------------------------10-10---|
|---8h10~-8h10p8--8h10~------10b-10r-8h10p8---8h10-8h9----8-9---------|
|-10------------10--------------------------10--------10--------------|
|------------------------------------------------------------------10-|
|---------------------------------------------------------------------|

|------8----8-8------11-13----11b-13b--11----11b----------------------|
|-8h10---10-----/13--------13------------13-----13\6/13--13-13-13-----|
|--------------------------------------------------------14-------14--|
|---------------------------------------------------------------------|
|---------------------------------------------------------------------|
|---------------------------------------------------------------------|

|-----------------------15--15--15--15--15----15-----15---------------|
|-13-15b--13----13-15b--15b-15b-15b-15b---15b----15b----15b-15br13----|
|------------14-------------------------------------------------------|
|---------------------------------------------------------------------|
|---------------------------------------------------------------------|
|---------------------------------------------------------------------|

|-----------------------------------------------------8---------------|
|----15b-13----13---------------------------------------11-11b--------|
|-14--------14----14\--8----8----8-10-10b-10-8----10b-----------------|
|------------------------10---10---------------10---------------------|
|---------------------------------------------------------------------|
|---------------------------------------------------------------------|

|-8----8h11p8----8h11b-11-8---8-11-11r8-----8h11p8---8----------------|
|---11--------11------------11-----------11-------11---11p8----8------|
|-----------------------------------------------------------10--------|
|---------------------------------------------------------------------|
|---------------------------------------------------------------------|
|---------------------------------------------------------------------|

|-----------------------8---------------------------------------------|
|-------------------------8-------------------11-11-11-11-------11-11-|
|-8h10p8----10----8h10b-----10rp8h10~p8-10/12-12-12-12-12-11/12-12-12-|
|--------10----10-----------------------------------------------------|
|---------------------------------------------------------------------|
|---------------------------------------------------------------------|

|-----------------------------------------8------8--------------------|
|-11-------11---------------------------8-8-11b----11-----------------|
|-12-11/12-12-12\10-8-10----8b------8-9---------------10b-10-8h10p8---|
|------------------------10----10-------------------------------------|
|---------------------------------------------------------------------|
|---------------------------------------------------------------------|

|---------------------------------------------------------------------|
|-----------------9br-6-8-6---6---------------------------------------|
|----10-8-------------------8---5-8h9-5~-3~---------5---5--7----------|
|-10------10p8-10---------------------------7\3-5/7---7-----7---------|
|---------------------------------------------------------------------|
|---------------------------------------------------------------------|


|---------------------------------------------------------------------|
|---------------------------------------------------------------------|
|-7b-7b-7b-7b-7b-7b-7b-7b-7b-7b-7b-7b-7b-7b-7b-7b-7r-5h7-7r-5---5h7/9-|
|-------------------------------------------------------------7-------|
|---------------------------------------------------------------------|
|---------------------------------------------------------------------|

|-----------------------------------------------11h13-11-----11-13b---|
|-8--------------------------------8---8-----------------13~----------|
|---5~p3-3h5-3b------------------/-8h9-8h9----------------------------|
|---------------5\3-1h3-1----1---/------------------------------------|
|--------------------------1---3-----------10/------------------------|
|---------------------------------------------------------------------|

|-11----------18--18---18---------18b--------15-----------------------|
|----13~-16b--18b-18b--18b-16---------16-18-----18-16b--------16-18---|
|-----------------------------17----------------------17p0-17---------|
|---------------------------------------------------------------------|
|---------------------------------------------------------------------|
|---------------------------------------------------------------------|

|---------------------------------------------------------------------|
|-18b-16----------------14b(16)(16)(16)(16)(16)-14b(16)(16)-14b(17)(17|
|--------17p15-17-15--------------------------------------------------|
|--------------------17-----------------------------------------------|
|---------------------------------------------------------------------|
|---------------------------------------------------------------------|

|---------------------------------------------------------------------|
|-(17)-14b(17)(17)-14b(17)-14b(17)-14b(17)-14b(17)-14r-11----11h13----|
|---------------------------------------------------------12----------|
|---------------------------------------------------------------------|
|---------------------------------------------------------------------|
|---------------------------------------------------------------------|

|---------------------------------------------------------------------|
|-10/11-11-11-11-11-11-10/11-11-11-11-11-11-10/11-11-11-11-11---------|
|-11/12-12-12-12-12-12-11/12-12-12-12-12-12-11/12-12-12-12-12-12\10-8-|
|---------------------------------------------------------------------|
|---------------------------------------------------------------------|
|---------------------------------------------------------------------|

|---------------------------------------------------------------------|
|-------------10/11-11-11-11-11-11-10/11-11-11-11-11-11-11-11-11-11---|
|-10----8b----11/12-12-12-12-12-12-11/12-12-12-12-12-12-11-12-11-12---|
|----10----10---------------------------------------------------------|
|---------------------------------------------------------------------|
|---------------------------------------------------------------------|

|---------------------------11-13-13b-13-11b-------11-----11----13b-13|
|-11----11-13-13br-13b-14br------------------13p11-11h13-----13-------|
|----12---------------------------------------------------------------|
|---------------------------------------------------------------------|
|---------------------------------------------------------------------|
|---------------------------------------------------------------------|

|-11----11-15--15--15--15--15--15--17p15----17p15----17p15----17p15---|
|----13----15b-15b-15b-15b-15b-15b-------16-------16-------16-------16|
|---------------------------------------------------------------------|
|---------------------------------------------------------------------|
|---------------------------------------------------------------------|
|---------------------------------------------------------------------|

|-17p15---------------------------------------------------------------|
|-------16\------------------------------8--8-8-----10rb-10rb-10rb----|
|------------8b--------------------------8-10-8-----10rb-10rb-10rb----|
|---------------10----8--10----8----------------10--------------------|
|------------------10-------10---10p8-10------------------------------|
|---------------------------------------------------------------------|

|-----------------------------8---------------------------------------|
|-10rb-10r8-------8b--------8-8-11-----8-11----------------------8-8--|
|-10rb-10r8-10----8b----8-9--------10b------10br-8-10----8h9-8-9------|
|--------------10----10-------------------------------10--------------|
|-------------------------------------------------------------------10|
|---------------------------------------------------------------------|

|---------------------------------------------------------------------|
|---------------------------------------------------------------------|
|-----------8h9-----------------8h9-----------------8h9---------------|
|------8-8--8---------8----8h10-8---------8----8h10-8---------8-10----|
|-8-10-----------8h10---10-----------8h10---10-----------8h10---------|
|---------------------------------------------------------------------|

|---------------------------------------------------------------------|
|---------------------------------------------------------------------|
|-8/-9-------------------------------------------8---8-7-7/-8-x-------|
|-9/10--8h10-10-10-10-10-10--8h10-8-------------10--10-9-9/10-x-8-----|
|-----------------------------------10-8-6-6/8-------8-7-7--8-----10--|
|---------------------------------------------------------------------|

|---------------------------------------------------------------------|
|---------------------------------------------------------------------|
|-----------------8--8-7-7/-8------8h10-8b------------9--9\8/-9-------|
|-8h10-8h10------10-10-9-9/10-8-10---------10p8-10p8--8--8\7/-8-----8-|
|-----------8~p0-----8-7-7/-8---------------------------10\9/10-/10---|
|--------------------------------------------------------8\7/-8-------|

|---------------------------------------------------------------------|
|---------------------------------------------------------------------|
|----8-10----8b----9--9\8/-9------------------------------------------|
|-10------10----10-8--8\7/-8--------8-10----8-------------------------|
|--------------------10\9/10-8-9-10------10---10-9p8-6/8--------------|
|---------------------8\7/-8-------------------------------11---------|

|---------------------------------------------------------------------|
|-11--11--11-11--11--11-10--9------------11b-----x--------------------|
|-10--10--10-10--10--10--9--8---8b-------11b-11b-x-8h10p8-10p8--------|
|-12--12--12-12--12--12-11-10------10p8------------------------10p8---|
|-10--10--10-10--10--10--9--8-----------------------------------------|
|---------------------------------------------------------------------|

|---------------------------------------------------------------------|
|------------------8-8------------------------------------------------|
|--------------8-9---------------------8h9-----------------8h9--------|
|----------------------------8----8h10-8---------8----8h10-8----------|
|-10p8-6h8-6b----------10-10---10-----------8h10---10-----------------|
|---------------------------------------------------------------------|

|---------------------------------------------------------------------|
|------------------------------------10b(11)(11)(11)(11)(11)(11)------|
|----------------8h9-----------------10b(12)(12)(12)(12)(12)(12)------|
|------8----8h10-8---------8----8-------------------------------------|
|-8h10---10-----------8h10---10---10----------------------------------|
|---------------------------------------------------------------------|

|---------------------------------------------------------------------|
|-10b(11)(11)(11)(11)(11)(11)-10b(11)(11)(11)(11)(11)(11)-10r---------|
|-10b(12)(12)(12)(12)(12)(12)-10b(12)(12)(12)(12)(12)(12)-10r8----8-10|
|--------------------------------------------------------------10-----|
|---------------------------------------------------------------------|
|---------------------------------------------------------------------|

|---------------------------------------------------------------------|
|---------------------------------------------------------------------|
|-----------------------------------------------------------8h9-------|
|-10-10----12----10----12----10----12----10h12-10------8----8---------|
|-----8--8--8--8--8--8--8--8--8--8--8--8--8-------8-10---10-----------|
|---------------------------------------------------------------------|

|--------------------------------------8------------------------------|
|------------------------------------8---11---------------------------|
|--------------------------------10b--------10b-10-8-10----8----------|
|------------------------------8------------------------10------------|
|---12----10----12----10----12----------------------------------------|
|-8--8--8--8--8--8--8--8--8--8----------------------------------------|

|---------------------------------------------------------------------|
|-------------------------------------------------------8-8-8---------|
|-------------------------------------8----10-8----8----8-8-8---------|
|-10----12----10----12----10-----8h10---10------10---10---------------|
|--8--8--8--8--8--8--8--8--8--8-------------------------------8p6-8---|
|-------------------------------------------------------------------6-|

|---------------------------------------------------------------------|
|-------------------------------8----8--------------------------------|
|-------------------------------8h10-8b--------------8------8----10-8-|
|---------------------------------------10---------8---8h10---10------|
|-10----12----10----12----10---------------10-8h10--------------------|
|--8--8--8--8--8--8--8--8--8--8---------------------------------------|

|----------------------------------8----8-10b-10r----11b-11-8---------|
|----------------11-11-10--9---------10-----------10----------11------|
|--------10--10--10-10--9--8---8h9------------------------------------|
|-10-----12--12--12-12-11-10------------------------------------------|
|----10--10--10--10-10--9--8------------------------------------------|
|---------------------------------------------------------------------|

|---------------------------------------------------------------------|
|---------------------------------------------------------------------|
|-10b-10-8-10-----------9--8------------------------------------------|
|-------------10-10-----9--8------------------------------------------|
|-----------------------8--7------------------------------------------|
|-----------------------9--8------------------------------------------|
Tap to rate this tab
 
# A B C D E F G H I J K L M N O P Q R S T U V W X Y Z