Song name
# A B C D E F G H I J K L M N O P Q R S T U V W X Y Z

Cream - Strange Brew tab

    --------------------------------------------------------

    CREAM - STRANGE BREW (Clapton/Collins/Pappalardi). From
            DISRAELI GEARS album. Released in November 1967.
   
    --------------------------------------------------------

    Tabbed by:PJVillanueva





    Strange brew killin' what's inside of you.
                               
    She's a witch of trouble in electric blue.
    In her own mad mind she's in love with you, with you.
    Now what you gonna do?
    Strange brew killin' what's inside of you.

    She's some kind of demon messin' in the flue.
    If you don't watch out it'll stick to you, to you.
    What kind of fool are you?
    Strange brew killin' what's inside of you.

    On a boat in the middle of a raging sea,
    She would make a scene for it all to be ignored.
    And wouldn't you be bored?
    Strange brew -- killin' what's inside of you.

    Strange brew, strange brew, strange brew, strange brew.
    Strange brew -- killin' what's inside of you. 



                                                        xxx x   x

  e|------- ------- ------- -------|------- ------- ------- -------|
  B|-------------------------------|-------------------------------|
  G|-------------------------------|-------------------------------|
  D|-------------------------------|-------------------------------|
  A|-------------------------------|-------------------------------|
  E|-------------------------------|-------------------------------|



    A
  e|------- 5------ ------- -------|------- 5------ ------- -------|
  B|--------5----------------------|--------5----------------------|
  G|--------6----------------------|--------6----------------------|
  D|--------7-----------------5-5H7|--------7---------------5-5-5H7|
  A|--------7-----------5H7--------|--------7-----------5H7--------|
  E|5---5---5----------------------|5---5---5----------------------|

  e|------- ------- ------- -------|------- ------- ------- -------|
  B|8H10--~------------------------|8H10----8----8-----------------|
  G|-------------------------------|----------------9\7-----5----7-|
  D|-------------------------------|-------------------------------|
  A|-------------------------------|-------------------------------|
  E|-------------------------------|-------------------------------|




  e|------- 5------ ------- -------|------- 5------ ------- -------|
  B|--------5----------------------|--------5----------------------|
  G|--------6----------------------|--------6----------------------|
  D|--------7-----------------5-5H7|--------7-----------------5-5H7|
  A|--------7-----------5H7--------|--------7-----------5H7--------|
  E|5---5---5----------------------|5---5---5----------------------|

  e|------- ------- ------- -------|------- ------- ------- -------|
  B|---------------------------BR-P|-------------------------------|
  G|5B6-------------------------875|--------5/6--------------------|
  D|-------------------------------|7------------------------------|
  A|-------------------------------|-------------------------------|
  E|-------------------------------|-------------------------------|



    D7sus2
  e|------- 5------ ------- -------|------- 5------ ------- -------|
  B|--------5----------------------|--------5----------------------|
  G|--------5----------------------|--------5----------------------|
  D|--------7-----------------5-5H7|--------7-----------------5-5H7|
  A|5---5---5-----------5H7--------|5---5---5-----------5H7--------|
  E|-------------------------------|-------------------------------|

  e|8P5--~- ------- ------- -------|8P5---- --8P5-- ------- -------|
  B|-------------------------------|-------------------------------|
  G|-------------------------------|----------------9\7-----5------|
  D|-------------------------------|-------------------------------|
  A|-------------------------------|-------------------------------|
  E|-------------------------------|-------------------------------|



    A
  e|------- 5------ ------- -------|------- 5------ ------- -------|
  B|--------5----------------------|--------5----------------------|
  G|--------6----------------------|--------6----------------------|
  D|--------7-----------------5-5H7|--------7-----------------5-5H7|
  A|--------7-----------5H7--------|--------7-----------5H7--------|
  E|5---5---5----------------------|5---5---5----------------------|

  e|------- ------- ------- -------|--8---- ------- ------- -------|
  B|-------------------------------|8---10----------8--------------|
  G|----------------------------7/9|-------------------------------|
  D|7------------------------------|-------------------------------|
  A|-------------------------------|-------------------------------|
  E|-------------------------------|-------------------------------|



    E7#9                            D7#9
  e|------- ------- ------- -------|------- ------- ------- -------|
  B|--------8----------------------|--------6----------------------|
  G|--------7----------------------|--------5----------------------|
  D|--------6-----------------5-5H7|--------4-----------------5-5H7|
  A|7---7---7-----------5H7--------|5---5---5-----------5H7--------|
  E|-------------------------------|-------------------------------|
    Strange     brew                killin' inside      of  you.
                                        what's 


    A
  e|------- 5------ ------- -------|------- 5------ ------- -------|
  B|--------5----------------------|--------5----------------------|
  G|--------6----------------------|--------6----------------------|
  D|--------7-----------------5-5H7|--------7-----------------5-5H7|
  A|--------7-----------5H7--------|--------7-----------5H7--------|
  E|5---5---5----------------------|5---5---5----------------------|
                                                            She's
                                                                a
  e|------- ------- ------- 5------|------- ------- ------- -------|
  B|--------------------------8P5--|-------------------------------|
  G|--------7B9--~-----------------|7---5B6------------------------|
  D|-------------------------------|--------7----------------------|
  A|-------------------------------|------------7------------------|
  E|-------------------------------|-------------------------------|



    00:27
                                    D7sus2
  e|------- 5------ ------- -------|------- 5------ ------- -------|
  B|--------5----------------------|--------5----------------------|
  G|--------6----------------------|--------5----------------------|
  D|--------7---------------5-5-5H7|--------7---------------5-5-5H7|
  A|--------7-----------5H7--------|5---5---5-----------5H7--------|
  E|5---5---5----------------------|-------------------------------|
    witch   of      trouble in  electric        blue        In  her



    A
  e|------- 5------ ------- -------|------- 5------ ------- -------|
  B|--------5----------------------|--------5----------------------|
  G|--------6----------------------|--------6----------------------|
  D|--------7---------------5-5-5H7|--------7-----------------5-5H7|
  A|--------7-----------5H7--------|--------7-----------5H7--------|
  E|5---5---5----------------------|5---5---5----------------------|
    own     mad     mind    she's   love    you,            with 
                                in      with                    you.


    D7sus2
  e|------- 5------ ------- -------|------- 5------ ------- -------|
  B|--------5----------------------|--------5----------------------|
  G|--------5----------------------|--------5----------------------|
  D|--------7-----------------5-5H7|--------7-----------------5-5H7|
  A|5---5---5-----------5H7--------|5---5---5-----------5H7--------|
  E|-------------------------------|-------------------------------|
                                        Now what you            do?
                                                    gonna
  e|------- ------- ------- -------|------- ------- ------- -------|
  B|-------------------------------|-------------------------------|
  G|------------7B9-5---7----------|-------------------------------|
  D|----------------------------7--|-------------------------------|
  A|-------------------------------|-------------------------------|
  E|-------------------------------|-------------------------------|



    A
  e|------- 5------ ------- -------|------- 5------ ------- -------|
  B|--------5----------------------|--------5----------------------|
  G|--------6----------------------|--------6----------------------|
  D|--------7-----------------5-5H7|--------7-----------------5-5H7|
  A|--------7-----------5H7--------|--------7-----------5H7--------|
  E|5---5---5----------------------|5---5---5----------------------|

  e|------- ------- ------- -------|------- ------- ------- -------|
  B|--------8B10--~---------10R8---|-------------------------------|
  G|----------------------------9-7|5B6----------------------------|
  D|-------------------------------|----7--------------------------|
  A|-------------------------------|--------7----------------------|
  E|-------------------------------|-------------------------------|



    E7#9                            D7#9
  e|------- ------- ------- -------|------- ------- ------- -------|
  B|--------8----------------------|--------6----------------------|
  G|--------7----------------------|--------5----------------------|
  D|--------6-----------------5-5H7|--------4-----------------5-5H7|
  A|7---7---7-----------5H7--------|5---5---5-----------5H7--------|
  E|-------------------------------|-------------------------------|
    Strange     brew                killin' inside      of  you.
                                        what's 


    A
  e|------- 5------ ------- -------|------- 5------ ------- -------|
  B|--------5----------------------|--------5----------------------|
  G|--------6----------------------|--------6----------------------|
  D|--------7-----------------5-5H7|--------7-----------------5-5H7|
  A|--------7-----------5H7--------|--------7-----------5H7--------|
  E|5---5---5----------------------|5---5---5----------------------|
                                                                She's
  e|------- ------- 5------ -------|------- ------- ------- -------|
  B|------------------8P5----------|-------------------------------|
  G|--------7B9--~----------7---5-B|6------------------------------|
  D|-------------------------------|----7--------------------------|
  A|-------------------------------|--------7----------------------|
  E|-------------------------------|-------------------------------|



    00:55

    some kind of demon messin' in the flue.
    If you don't watch out it'll stick to you, to you.


    01:04

  e|------- ------- ------- ----8--|------- ------- ------- -------|
  B|------------------------8------|10-----------------------------|
  G|--------------------7/9--------|--------9----------------------|
  D|-------------------------------|-------------------------------|
  A|-------------------------------|-------------------------------|
  E|-------------------------------|-------------------------------|
                                        What    of  fool        you?
                                            kind        are


  e|------- ------- ------- 5------|------- ------- ------- -------|
  B|--------------------------8P5--|----8--------------------------|
  G|--------7B9--~-----------------|7/9-----9\7-5--~--------7/9----|
  D|-------------------------------|-------------------------------|
  A|-------------------------------|-------------------------------|
  E|-------------------------------|-------------------------------|




    01:13
    Strange brew killin' what's inside of you.


    01:17

  e|------- ------- ------- 5------|------- ------- ------- -----B-|
  B|----------------------------5--|------------------------13-1720|
  G|--------7B9--~-----------------|7---5B6-------------14---------|
  D|-------------------------------|--------7----------------------|
  A|-------------------------------|------------7------------------|
  E|-------------------------------|-------------------------------|


    SOLO
    01:22

  e|------- ------- ------- -------|------- ------- ------- -------|
  B|-------------------------------|--------15B17---15B17---1313---|
  G|-------------------------------|-----14--------------------14-~|
  D|-------------------------------|-------------------------------|
  A|-------------------------------|-------------------------------|
  E|-------------------------------|-------------------------------|




  e|------- ------- ------- -------|------- ------- ------- -------|
  B|--------13---------------------|--------15B17-----------15--13-|
  G|-------------------------------|-------------------------------|
  D|-------------------------------|-------------------------------|
  A|-------------------------------|-------------------------------|
  E|-------------------------------|-------------------------------|




  e|------- ------- ------- -------|------- ----8-- ------- -------|
  B|----------------13-\-----------|--------8-------10P8-----------|
  G|1414--~------------------------|----7/9--------------7--5B6----|
  D|-------------------------------|----------------------------7-7|
  A|-------------------------------|-------------------------------|
  E|-------------------------------|-------------------------------|




  e|------- ------- ------- ----5--|------- ------- ------- --B----|
  B|-------------------------------|8--~---/17--------------1314-15|
  G|------------------------4/6----|--------------------14---------|
  D|-------------------------------|-------------------------------|
  A|-------------------------------|-------------------------------|
  E|-------------------------------|-------------------------------|




  e|------- ------- ------- -------|------- ------- ------- -------|
  B|13B15---13B15---13B15---13B15--|13B15---13B15---131513B---1513B|
  G|-------------------------------|-------------------------------|
  D|-------------------------------|-------------------------------|
  A|-------------------------------|-------------------------------|
  E|-------------------------------|-------------------------------|




  e|------- ------- 5------ -------|------- ------- ------- -------|
  B|------------------8P5----------|-------------------------------|
  G|14--~------\------------7---5-B|6------------------------------|
  D|-------------------------------|----7--------------------------|
  A|-------------------------------|--------7----------------------|
  E|-------------------------------|-------------------------------|
                                                            On  a



    01:49
    boat in the middle of a raging sea,
    She would make a scene for it all to be ignored.


    01:58

  e|------- ------- ------- -------|------- ------- ------- -------|
  B|------/-8--~-------------------|----8--------------------------|
  G|------/-9--~-------------------|7/9----------------------------|
  D|-------------------------------|-------H10---------------------|
  A|-------------------------------|-------------------------------|
  E|-------------------------------|-------------------------------|
                                        And wouldn't    be      bored?
                                                    you


  e|------- ------- 5------ -------|------- ------- ------- -------|
  B|------------------8P5-------8--|-------------------------------|
  G|--------7B9--~----------7/9----|7---5--------------------------|
  D|-------------------------------|--------7---5------------------|
  A|-------------------------------|-------------------------------|
  E|-------------------------------|-------------------------------|



    02:07
    Strange brew killin' what's inside of you.

                                    
    02:12
                                    xx      x x x x X X X X X X X X
  e|------- ------- ------- -------|------- 5------ ------- -------|
  B|-------------------------------|--------5----------------------|
  G|-------------------------------|--------6----------------------|
  D|7------------------------------|--------7---------------5-5-5H7|
  A|7------------------------------|--------7-----------5H7--------|
  E|5------------------------------|--------5----------------------|


    02:16

  e|------- 5------ ------- -------|------- 5------ ------- -------|
  B|--------5----------------------|--------5----------------------|
  G|--------6----------------------|--------5----------------------|
  D|--------7---------------5-5-5H7|--------7---------------5-5-5H7|
  A|--------7-----------5H7--------|5---5---5-----------5H7--------|
  E|5---5---5----------------------|-------------------------------|
    Strange         brew
  e|------- ------- ------- -------|------- ------- ------- -------|
  B|-------------------------------|10B13--~--------10--8---10--8--|
  G|-------------------------------|-------------------------------|
  D|-------------------------------|-------------------------------|
  A|-------------------------------|-------------------------------|
  E|-------------------------------|-------------------------------|




  e|------- 5------ ------- -------|------- 5------ ------- -------|
  B|--------5----------------------|--------5----------------------|
  G|--------6----------------------|--------6----------------------|
  D|--------7-----------------5-5H7|--------7-----------------5-5H7|
  A|--------7-----------5H7--------|--------7-----------5H7--------|
  E|5---5---5----------------------|5---5---5----------------------|
    Strange         brew
  e|------- ------- ------- -------|------- ------- ------- -------|
  B|8B10--~---R-8---8-----------8--|8B10--~---------8P5-8P5--------|
  G|-------------------------------|------------------------7---5--|
  D|-------------------------------|-------------------------------|
  A|-------------------------------|-------------------------------|
  E|-------------------------------|-------------------------------|




  e|------- 5------ ------- -------|------- ------- ------- -------|
  B|--------5----------------------|--------6----------------------|
  G|--------5----------------------|--------5----------------------|
  D|--------7-----------------5-5H7|--------7-----------------5-5H7|
  A|5---5---5-----------5H7--------|5---5---5-----------5H7--------|
  E|-------------------------------|-------------------------------|
    Strange             brew
  e|------- ------- ------- -------|------- ------- ------- -------|
  B|-------------------------------|-------------------------------|
  G|7-P-5-H-7--------------8B10--~-|--------8B---------------------|
  D|-------------------------------|-------------------------------|
  A|-------------------------------|-------------------------------|
  E|-------------------------------|-------------------------------|




  e|------- 5------ ------- -------|------- 5------ ------- -------|
  B|--------5----------------------|--------5----------------------|
  G|--------6----------------------|--------6----------------------|
  D|--------7-----------------5-5H7|--------7-----------------5-5H7|
  A|--------7-----------5H7--------|--------7-----------5H7--------|
  E|5---5---5----------------------|5---5---5----------------------|
    Strange                     brew
  e|------- ------- ------- -------|------- ------- ------- -------|
  B|-------------------3P10--------|-------------------------------|
  G|-------------------------------|----------------7-B-9----------|
  D|-------------------------------|-------------------------------|
  A|-------------------------------|-------------------------------|
  E|-------------------------------|-------------------------------|




  e|------- ------- ------- -------|------- ------- ------- -------|
  B|--------8----------------------|--------6----------------------|
  G|--------7----------------------|--------5----------------------|
  D|--------6-----------------5-5H7|--------4-----------------5-5H7|
  A|7---7---7-----------5H7--------|5---5---5-----------5H7--------|
  E|-------------------------------|-------------------------------|
    Strange         brew            killin' inside      of  you.
                                        what's 


    02:38                                       (.

  e|------- ------- ------- -------|------- ----0-- ------- -------|
  B|-------------------------------|------------0------------------|
  G|-------------------------------|------------0------------------|
  D|7------------------------------|------------0------------------|
  A|7------------------------------|------------0------------------|
  E|5------------------------------|------------3------------------|

  e|------- ----5-- ------- -------|------- ------- ------- -------|
  B|--------5-----5-8P5------------|----8--------------------------|
  G|----7B9------------797--5H7P5--|7/9-----9\7-5------------------|
  D|--------------------BR---------|-------------------------------|
  A|-------------------------------|-------------------------------|
  E|-------------------------------|-------------------------------|







        B  Bend
        R  Release
        /  Slide up
        \  Slide down
        H  Hammer-on
        P  Pull-off
        ~  Vibrato
        +  Harmonic
        x  Mute note
        .  Play note like a dot in standard notation
        ^  Ties two notes together
        (. Pause



Tap to rate this tab
# A B C D E F G H I J K L M N O P Q R S T U V W X Y Z