Song name
# A B C D E F G H I J K L M N O P Q R S T U V W X Y Z

Cream - Sunshine Of Your Love tab

    -------------------------------------------------------

    CREAM - SUNSHINE OF YOUR LOVE (Clapton, Bruce & Brown). 
            From DISRAELI GEARS album. Released in November 
            1967.
 
    -------------------------------------------------------

    Tabbed by:PJVillanueva




    It's getting near dawn,
    When lights close their tired eyes.
    I'll soon be with you my love,
    To give you my dawn surprise.
    I'll be with you darling soon,
    I'll be with you when the stars start falling.

    I've been waiting so long
    To be where I'm going
    In the sunshine of your love.

    I'm with you my love,
    The light's shining through on you.
    Yes, I'm with you my love,
    It's the morning and just we two.

    I'll stay with you darling now,
    I'll stay with you till my seas are all dried up.

    Chorus

    Repeat Second Verse

    I've been waiting so long
    I've been waiting so long
    I've been waiting so long
    To be where I'm going
    In the sunshine of your love.

                               


  e|------- ------- ------- -------|------- ------- ------- -------|
  B|-------------------------------|-------------------------------|
  G|7---7---5---7------------------|-------------------------------|
  D|--------------------7-------6--|----5-----------3-~------------|
  A|-------------------------------|------------5-----------5---5--|
  E|-------------------------------|-------------------------------|



  e|------- ------- ------- -------|------- ------- ------- -------|
  B|-------------------------------|-------------------------------|
  G/7---7---5---7------------------|-------------------------------|
  D|--------------------7-------6--|----5-----------3-~------------|
  A|-------------------------------|------------5-----------5------|
  E|-------------------------------|-------------------------------|


    00:08
    D7      C7  D7
  e|------- ------- ------- -------|------- ------- ------- -------|
  B|7---7---5---7------------------|------------8---6-~------------|
  G|5---5---3---5------------------|------------7-----------7---0--|
  D|7---7---5---7-------7-------6--|----5--------------------------|
  A|-------------------------------|-------------------------------|
  E|-------------------------------|-------------------------------|



  e|------- ------- ------- -------|------- ------- ------- -------|
  B|7---7---5-/-7------------------|------------8---6-~------------|
  G|5---5---3-/-5------------------|------------7-----------7---0--|
  D|7---7---5-/-7-------7-------6--|----5--------------------------|
  A|-------------------------------|-------------------------------|
  E|-------------------------------|-------------------------------|
                                                                It's


  e|------- ------- ------- -------|------- ------- ------- -------|
  B|7---7---5-/-7------------------|------------8---6-~------------|
  G\5---5---3-/-5------------------|------------7-----------7---0--|
  D|7---7---5-/-7-------7-------6--|----5--------------------------|
  A|-------------------------------|-------------------------------|
  E|-------------------------------|-------------------------------|
    getting near                                                when
                dawn,



    00:21
    lights close their tired eyes.
    I'll soon be with you my love,
    To give you my dawn surprise. I'll


    00:33
    G       F   G
  e|7---7-- 5---7-- ------- -------|------- ------- ------- -------|
  B|8---8---6---8------------------|-------------------------------|
  G|7---7---5---7-------7-------6--|----5-----------3B-------------|
  D|-------------------------------|------------5-----------5---5--|
  A|-------------------------------|-------------------------------|
  E|-------------------------------|-------------------------------|
    be  with    darling         soon,                           I'll
            you


  e|7---7-- 5---7-- ------- -------|------- ------- ------- -------|
  B|8---8---6---8------------------|-------------------------------|
  G|7---7---5---7-------7-------6--|----5-----------3B-------------|
  D|-------------------------------|------------5-----------5------|
  A|-------------------------------|----------------------------5--|
  E|-------------------------------|-------------------------------|
     be with    when    the     stars   start   falling.
            you
 
    D7      C7  D7
  e|------- ------- ------- -------|------- ------- ------- -------|
  B|7---7---5---7------------------|-------------------------------|
  G|5---5---3---5------------------|-------------------------------|
  D|7---7---5---7-------7-------6--|----5-----------3--------------|
  A|-------------------------------|------------5-----------5-3/5--|
  E|-------------------------------|-------------------------------|



  e|------- ------- ------- -------|------- ------- ------- -------|
  B|7---7---5---7------------------|----------------6-~------------|
  G|5---5---3---5------------------|------------------------7------|
  D|7---7---5---7-------7-------6--|----5--------------------------|
  A|-------------------------------|------------5------------------|
  E|-------------------------------|----------------------------5--|

   
    00:50
    A                               C               G
  e|5-----5 5------ ------- -------|8------ ------- 3------ -------|
  B|5-----5-5----------------------|8---------------3--------------|
  G|6-----6-6----------------------|9---------------4--------------|
  D|7-----7-7----------------------10---------------5--------------|
  A|7-----7-7----------------------10---------------5--------------|
  E|5-----5-5----------------------|8---------------3--------------|
                I've    been    waiting         so      long
                To      be      where   I'm     going
                In      the     sunshine        of      your 


    A
  e|5-----5 5-----5 5-----5 5-----5|5-5---- 5-----5 5---5-- 5------|
  B|5-----5-5-----5-5-----5-5-----5|5-5-----5-----5-5---5---5------|
  G|6-----6-6-----6-6-----6-6-----6|6-6-----6-----6-6---6---6------|
  D|7-----7-7-----7-7-----7-7-----7|7-7-----7-----7-7---7---7---7--|
  A|7-----7-7-----7-7-----7-7-----7|7-7-----7-----7-7---7---7---7--|
  E|5-----5-5-----5-5-----5-5-----5|5-5-----5-----5-5---5---5---5--|
    love.


    01:06
    D7      C   D7
  e|------- ------- ------- -------|------- ------- ------- -------|
  B|7---7---5---7------------------|------------8---6-~------------|
  G|5---5---5---5------------------|------------7-----------7---0--|
  D|7---7---5---7-------7-------6--|----5--------------------------|
  A|-------------------------------|-------------------------------|
  E|-------------------------------|-------------------------------|
                                                                I'm


 
    D       C   D
  e|------- ------- ------- -------|------- ------- ------- -------|
  B|7---7---5---7------------------|------------8---6-~------------|
  G|7---7---5---7------------------|----5-------7-----------7---0--|
  D|7---7---5---7-------7-------6--|----5--------------------------|
  A|-------------------------------|-------------------------------|
  E|-------------------------------|-------------------------------| ...
    with    my  love
        you, 
 

    The light's shining through on you.
    Yes, I'm with you my love,
    It's the morning and just we two. I'll

    01:27
    stay with you darling now,
    I'll stay with you till my seas are all dried up.


    01:36

  e|------- ------- ------- -------|------- ------- ------- -------|
  B|7---7---5---7------------------|------------8---6-~------------|
  G|7---7---5---7------------------|----5-------7-----------7---0--|
  D|7---7---5---7-------7-------6--|----5--------------------------|
  A|-------------------------------|-------------------------------|
  E|-------------------------------|-------------------------------|
    ............................ Twice ............................


    01:44 
        I've been waiting so long
    To be where I'm going
    In the sunshine of your ...


    01:57

  e|5-----5 5-----5 5-----5 5-----5|5-----5 5-----5 5------ 5------|
  B|5-----5-5-----5-5-----5-5-----5|5-----5-5-----5-5-------5------|
  G|6-----6-6-----6-6-----6-6-----6|6-----6-6-----6-6-------6------|
  D|7-----7-7-----7-7-----7-7-----7|7-----7-7-----7-7-------7------|
  A|7-----7-7-----7-7-----7-7-----7|7-----7-7-----7-7-------7------|
  E|5-----5-5-----5-5-----5-5-----5|5-----5-5-----5-5-------5------|
    love.
  e|------- ------- ------- -------|------- ------- ------- -------|
  B|-------------------------------|----------------------------810|
  G|-------------------------------|-----------------------------B-|
  D|-------------------------------|-------------------------------|
  A|-------------------------------|-------------------------------|
  E|-------------------------------|-------------------------------|


    SOLO
    02:01

  e|------- ------- ------- -------|------- ----7-- ------- -------|
  B|810-~--------------------------|----8---10----/-10--10------8--|
  G|-B-----------------------------|------(B)----------------------|
  D|-------------------------------|-------------------------------|
  A|-------------------------------|-------------------------------|
  E|-------------------------------|-------------------------------|




  e|------- ------- ------- -------|------- ------- ------- -------|
  B|10-~---------------------------|-----------------------10------|
  G|-------------------------------|----910---R-9P7-9---7---9-B-11-|
  D|-------------------------------|-----B-------------------------|
  A|-------------------------------|-------------------------------|
  E|-------------------------------|-------------------------------|




  e|------- ------- ------- -------|------- ------- ------- -------|
  B|-------------------------------|-----------10--------10-----10-|
  G|7-~----------------------------|--------7H9-911-------911----911
  D|-------------------------------|----7H9------B---------B------B|
  A|-------------------------------|-------------------------------|
  E|-------------------------------|-------------------------------|




  e|------- ------- ------- -------|------- ------- ------- -------|
  B|-------------------------------|----8-B-9-------8-B-10--8-B10--|
  G|--R-9-7H9P7-~------------------|-------------------------------|
  D|-------------------------------|-------------------------------|
  A|-------------------------------|-------------------------------|
  E|-------------------------------|-------------------------------|


    02:17

  e|------- ------- ------- -------|------- ------- ------- -------|
  B|-------------------------------|-------------------------------|
  G|10B12---10B12-~---------9---7--|9B11----7-~-------------9B10---|
  D|-------------------------------|------9------------------------|
  A|-------------------------------|-------------------------------|
  E|-------------------------------|-------------------------------|




  e|------- ------- ------- -------|------- ------- ------- -------|
  B|-------------------------------|-------------------------------|
  G|------------7-H-9--(9)B10------|7H9B11----9B12----9B10--9-11---|
  D|--------7H9-----------------9--|-----------------------------9-|
  A|-------------------------------|-------------------------------|
  E|-------------------------------|-------------------------------|




  e|------- ------- ------- -------|-------/-8----- ------- 5------|
  B|-------------------------------|-------/10------8---6---7------|
  G|7H9-7----7-~-------------------|-------------------------------|
  D|-------------------------------|-------------------------------|
  A|-------------------------------|-------------------------------|
  E|-------------------------------|-------------------------------|




  e|------- ------- ------- -------|------- ----10- ------- -------|
  B|6-~---------------------6H7-~--|--------------------6B7-----6--|
  G|--------7--(5)--7--------------|------------------------7------|
  D|-------------------------------|-------------------------------|
  A|-------------------------------|-------------------------------|
  E|-------------------------------|-------------------------------|


    02:34

  e|5-----5 5------ ------- -------|8------ ------- 3------ -------|
  B|5-----5-5----------------------|8---------------3--------------|
  G|6-----6-6----------------------|9---------------4--------------|
  D|7-----7-7----------------------10---------------5--------------|
  A|7-----7-7----------------------10---------------5--------------|
  E|5-----5-5----------------------|----------------3--------------|

  e|------- ------- 8------ -------|------- ------- ----8-- -------|
  B|8B10-~--------------8B9-8---6-~|--------8-------810----R8---6--|
  G|-------------------------------|-----------------B-------------|
  D|-------------------------------|-------------------------------|
  A|-------------------------------|-------------------------------|
  E|-------------------------------|-------------------------------|




  e|5-----5 5------ ------- -------|8------ ------- 3------ -------|
  B|5-----5-5----------------------|8---------------3--------------|
  G|6-----6-6----------------------|9---------------4--------------|
  D|7-----7-7----------------------10---------------5--------------|
  A|7-----7-7----------------------10---------------5--------------|
  E|5-----5-5----------------------|----------------3--------------|

  e|------- 10----- ------- -------|------- ------- ------- -------|
  B|----10------R-P----------------|-------------------------------|
  G|1214-----B131210----10---------|----------------10--10--10--12-|
  D|--B-------------12------12-----|--------10--10--10121012-------|
  A|----------------------------12-|--------10121012--H---H--------|
  E|-------------------------------|----------H---H----------------|




  e|5-----5 5------ ------- -------|8------ ------- 3------ -------|
  B|5-----5-5----------------------|8---------------3--------------|
  G|6-----6-6----------------------|9---------------4--------------|
  D|7-----7-7----------------------10---------------5--------------|
  A|7-----7-7----------------------10---------------5--------------|
  E|5-----5-5----------------------|----------------3--------------|

  e|------- ------- ------- -------|------- ------- ---/12- -------|
  B|--------13--13131513-----------|------------13----------13--15-|
  G|1214------14----H--1412-10-1210|1214------------14-------------|
  D|--B------------------\-------P-|--B----------------------------|
  A|-------------------------------|-------------------------------|
  E|-------------------------------|-------------------------------|




  e|5-----5 5-----5 5-----5 5-----5|5---5-- 5------ 5---5-- 5------|
  B|5-----5-5-----5-5-----5-5-----5|5---5---5-------5---5---5------|
  G|6-----6-6-----6-6-----6-6-----6|6---6---6-------6---6---6------|
  D|7-----7-7-----7-7-----7-7-----7|7---7---7-------7---7---7------|
  A|7-----7-7-----7-7-----7-7-----7|7---7---7-------7---7---7------|
  E|5-----5-5-----5-5-----5-5-----5|5---5---5-------5---5---5------|

  e|----13- -P----- ------- -------|------- ------- ------- -------|
  B|----13-1513--------------------|---1313-1313-------------------|
  G|----------14\12-10------12--10-|1214-------1412-10B----------H-|
  D|--------------------12---------|--/----------\-----1210----1012|
  A|-------------------------------|---------------------P--12-----|
  E|-------------------------------|-------------------------------|



    02:50
    D       C   D
  e|------- ------- ------- -------|------- ------- ------- -------|
  B|7---7---5---7------------------|-------------------------------|
  G|7---7---5---7------------------|-------------------------------|
  D|7---7---5---7-------7-------6--|----5-----------3-~------------|
  A|-------------------------------|------------5-----------5---5--|
  E|-------------------------------|-------------------------------|




  e|------- ------- ------- -------|------- ------- ------- -------|
  B|7---7---5---7------------------|------------8---6-~------------|
  G|7---7---5---7------------------|------------7-----------7---0--|
  D|7---7---5---7-------7-------6--|----5--------------------------|
  A|-------------------------------|-------------------------------|
  E|-------------------------------|-------------------------------|
                                                                I'm

    02:59
    with you my love,
    The light's shining through on you.
    Yes, I'm with you my love,
    It's the morning and just we two. I'll

    03:15
    stay with you darling now,
    I'll stay with you till my seas are all dried up.


    03:32
         I've been waiting so long
    I've been waiting so long
    I've been waiting so long
    To be where I'm going
    In the sunshine of your ...


    03:53
    A
  e|5-----5 5-----5 5-----5 5-----5|5-----5 5-----5 5---5-- 5-----5|
  B|5-----5-5-----5-5-----5-5-----5|5-----5-5-----5-5---5---5-----5|
  G|6-----6-6-----6-6-----6-6-----6|6-----6-6-----6-6---6---6-----6|
  D|7-----7-7-----7-7-----7-7-----7|7-----7-7-----7-7---7---7-----7|
  A|7-----7-7-----7-7-----7-7-----7|7-----7-7-----7-7---7---7-----7|
  E|5-----5-5-----5-5-----5-5-----5|5-----5-5-----5-5---5---5-----5|
    love.



  e|5-----5 5-----5 5-----5 5-----5|5-----5 5-----5 5---5-- 5-----5|
  B|5-----5-5-----5-5-----5-5-----5|5-----5-5-----5-5---5---5-----5|
  G|6-----6-6-----6-6-----6-6-----6|6-----6-6-----6-6---6---6-----6|
  D|7-----7-7-----7-7-----7-7-----7|7-----7-7-----7-7---7---7-----7|
  A|7-----7-7-----7-7-----7-7-----7|7-----7-7-----7-7---7---7-----7|
  E|5-----5-5-----5-5-----5-5-----5|5-----5-5-----5-5---5---5-----5|


  

  e|5-----5 5-----5 5-----5 5-----5|5---5-- 5-----5 5---5-- 5-----5|
  B|5-----5-5-----5-5-----5-5-----5|5---5---5-----5-5---5---5-----5|
  G|6-----6-6-----6-6-----6-6-----6|6---6---6-----6-6---6---6-----6|
  D|7-----7-7-----7-7-----7-7-----7|7---7---7-----7-7---7---7-----7|
  A|7-----7-7-----7-7-----7-7-----7|7---7---7-----7-7---7---7-----7|
  E|5-----5-5-----5-5-----5-5-----5|5---5---5-----5-5---5---5-----5|


 

  e|5-----5 5-----5 5---5-- --5----|5-----5 5---5-- --5-5-- 5---5--|
  B|5-----5-5-----5-5---5-----5----|5-----5-5---5-----5-5---5---5--|
  G|6-----6-6-----6-6---6-----6----|6-----6-6---6-----6-6---6---6--|
  D|7-----7-7-----7-7---7-----7----|7-----7-7---7-----7-7---7---7--|
  A|7-----7-7-----7-7---7-----7----|7-----7-7---7-----7-7---7---7--|
  E|5-----5-5-----5-5---5-----5----|5-----5-5---5-----5-5---5---5--|
    .......................... Fade out ...........................









        B  Bend
        R  Release
        /  Slide up
        \  Slide down
        H  Hammer-on
        P  Pull-off
        ~  Vibrato
        +  Harmonic
        x  Mute note
        .  Play note like a dot in standard notation
        ^  Ties two notes together
        (. Pause



Tap to rate this tab
 
# A B C D E F G H I J K L M N O P Q R S T U V W X Y Z