Song name
# A B C D E F G H I J K L M N O P Q R S T U V W X Y Z

Cream - Toad tab

"Toad"
by Cream                                  Tabbed by:
                                        Joe Ohlenbusch

Use a Bridge pickup on a little dull setting and lots of fuzz on a
tube amp and a little reverb.

Listen to song for correct timing.
Drum Intro

           MAIN RIFF
E------------------------------------|I
B------------------------------------|I
G-----9-----9------------------------|I
D-----9-----9-----11----9--------I---|  X4
A-----7-----7------7-----7-----------|I
E------------------------------------|I
            AFTER MAIN RIFF PLAY FILL 1
E---------------------------------------------------------------|I
B--------------------------------------------------7-------9----|I
G-----9-----7--------------------------------------7-------9----|I
D------------------9------------5------7-/-9--------------------|I
A--------------------------7------------------------------------|I
E---------------------------------------------------------------|I

SONG SETUP
>>>>>>>>>>>>>
MAIN RIFF  X4
FILL 1  X1
MAIN RIFF  X4
FILL 1  X1
MAIN RIFF  X4
FILL 2  X1
SOLO
AWSOME DRUM SOLO
FILL 1  X1
FILL 2  X1
RIFF 2 X3
DRUM FILL
END

                     FILL 2
E---------------------------------------------------------------------------|
B----0----------------------------------------------------------------------|
G----1-----------------------9----------------------------------------------|
D----2-----SLIDE-UP-TO ------9----------------------------------------------|
A----2-----------------------7-----------------------2----------------------|
E----0----------------------------------------------------4----2--0---------|


  SOLO
E----------------------------------------------------------------|
B----------------------------------------------------------------|
G-------9-~-9-9-~--9--9-~9---99--9--6/9--7~---~---~---~----------|
D----------------------------------------------------------------|
A----------------------------------------------------------------|
E----------------------------------------------------------------|

E----------------------------------------------------------------|
B----------------------------------10b11-------------------------|
G----9-~-9-~--9-9~---9-~-9----------------9---------7------------|
D-------------------------------------------------------7h9------|
A----------------------------------------------------------------|
E----------------------------------------------------------------|

E----------------------------------------------------------------|
B----------------------------------------------------------------|
G----------------------------------------------------------------|
D-----9-----7----------------------------------------------------|
A-------------------7--------------------------------------------|
E--------------------------------0---0-----0---0--0--------------|

E----------------------------------------------------------------|
B----------------------------------------------------------------|
G----------------------------------------------------9~--~-------|
D-----------------------------------7------9---------------------|
A----------------------------------------------------------------|
E----10~-~10~----------------------------------------------------|
      Get feedback from amp
                                    On  last note get feedback from amp
                                    and turn the volume up and down
                                    listen to song for timing.
 END ON THIS CHORD
E-------------------------|
B-------------8-----------|
G-------------7-----------|
D-------------6-----------|
A-------------7-----------|
E-------------------------|

This is the way I recorded it and it sounds correct.
Have fun
 Joe Ohlenbusch
Tap to rate this tab
 
# A B C D E F G H I J K L M N O P Q R S T U V W X Y Z