Guitaretab - guitar tabs
Song name
# A B C D E F G H I J K L M N O P Q R S T U V W X Y Z

Cream - Disraeli Gears tab

Cream

Disraeli Gears [1967]

1. Strange Brew
Tuning:EADGBe

Rhythm:

      A                    D9                    E7#9                 D7#9
------5------------------------------------------------------------------------------|
------5--------------------5---------------------8--------------------6--------------|
------6--------------------5---------------------7--------------------5--------------|
------7-------5-5h7--------4-------5-5h7---------6-------5-5h7--------4-------5-5h7--|
------7---5h7----------5-5-----5h7-----------7-7-----5h7----------5-5-----5h7--------|
--5-5--------------------------------------------------------------------------------|

Rhythm Order: A-D9-A-E7#9-D7#9-A-D9-A-D9-A-E7#9-D7#9-A-D7#9-A-D9-A-E7#9-D9-A-D9-A-E7#9

D7#9-A-D9-A-D9-D7#9-A-E7#9-D7#9-A-D9-A-D7#9-A-E7#9-D7#9-A9

Intro
----------------------------------------------------8------------8----8---------------|
--8h10~--8h10-8-8-------------------------------------10~~~~~~~~----10---10-----------|
------------------9\7--5--7--5b----7b-7p5---5--------------------------------9\7---5b-|
------------------------------------------7-------------------------------------------|
--------------------------------------------------------------------------------------|
--------------------------------------------------------------------------------------|

-----------------8------------|
---------------8----10~~~~-8--|
----------/9------------------|
-7----------------------------|
------------------------------|
------------------------------|

Fills:

0:24
---------5------------------------|
-----------5----------------------|
-7b~~~~~-----7-5b-----------------|
------------------7------5h7------|
--------------------7-------------|
----------------------------------|


0:37               0:43
---------------------------------------------|
-------------------8b~~~~~--8-5--------------|
--7b-5-7-5----5-----------------7-5b---------|
-----------7--------------------------7------|
----------------------------------------7----|
---------------------------------------------|

0:52
-----5------------------------------|
-------8p5--------------------------|
7b---------7-5b---------------------|
-----------------7------------------|
-------------------7-7--------------|
------------------------------------|


1:06               1:10
------8--------------------5-----------------------------|
----8---10~~~~---------------8p5-------8\----------------|
/9-------------9----7b~~~~~-------/9------7-5~~~--/9-----|
---------------------------------------------------------|
---------------------------------------------------------|
---------------------------------------------------------|


1:19
----------5-----------------------------|
------------5---------------------------|
7b~~~~~--------7-5b---------------------|
---------------------7------------------|
-----------------------7----------------|
----------------------------------------|


Guitar Solo:

-------------------------------------------------------------------------------------|
----13-15b------15b--15b-(15)-13-13---------13b------15b-(15)-15-13b------------13\--|
-14----------14---------------------14~~~~---------------------------14-14~~~~-------|
-------------------------------------------------------------------------------------|
-------------------------------------------------------------------------------------|
-------------------------------------------------------------------------------------|

------8---------------------------5--------------------------------------------------|
----8---10p8------------------5h6-----8---(8)/x-----13b-15-13b-13b-13b-13b-13b-13-15-|
-/9----------7-5b--------------------------------14----------------------------------|
------------------7-5--7~~~~---------------------------------------------------------|
-------------------------------------------------------------------------------------|
-------------------------------------------------------------------------------------|

------------------5------------------------------|
13b---15-13---------8p5--------------------------|
------------14\---------7-5b---------------------|
------------------------------7------------------|
--------------------------------7~~~~------------|
----------------------------------------8b--5----|

More Fills:

1:59                       2:04
-------------------------------5------------------------|
-/8~~~~---------8~~~~~-----------8p5-----8--------------|
-/9~~~~-7-5-7/9------------7b--------7/9---7-5----------|
-----------------------------------------------7-5~~~~~-|
--------------------------------------------------------|
--------------------------------------------------------|

2:19                              2:24
------------------------------------------------------------------------------|
-10b~~~~--10-8-10-8--8/10--8--8---8b~~~--8-8---------------8b~~~--8-----------|
---------------------------------------------7b7p5-7p5---------------7b---5-7-|
--------------------------------------------------------7---------------------|
------------------------------------------------------------------------------|
------------------------------------------------------------------------------|

2:39
-8-----------------------------|
---10~~~--8----------8---------|
---------------7/9-----9-------|
-------------------------------|
-------------------------------|
-------------------------------|

Outro:                                  A9

---------5---------------------------------------|
-------5---5-8p5-----------------8---------------|
----7b-----------7b(7)5h7p5-7/9----9\7--5--------|
----------------------------------------6--------|
----------------------------------------x--------|
-5--------------------------------------x--------|

2. Sunshine Of Your Love

(In order of Song)

Intro.(D)
-----------------------------------------|-----------------------------------------|
-----------------------------------------|-----------------------------------------|
-----------------------------------------|-----------------------------------------|
-12-12-10-12-----------------------------|/12-12-10-12-----------------------------|
--------------12--11--10------8~~~-------|--------------12--11--10\------8~~~------|
---------------------------10-------10-10|----------------------------10------10---|


  D   D    C  D
----------------------------------------------|-----------------------------------------------|
----------------------------------------------|-------------------------------12--------------|
-11--11---9--11---------------12--10~~~-------|--11--11---9--11---------------12--10~~~-------|
--X---X---X---X---------------12--------12----|---X---X---X---X---------------12--------12----|
-12--12--10--12--12--11--10-------------------|--12--12--10--12--12--11--10-----------------10|
-10--10---8--10-----------------------------10|--10--10---8--10-------------------------------|

  D   D    C  D
----------------------------------------------|-----------------------------------------------|
----------------------------------------------|-------------------------------12--------------|
-11--11---9--11---------------12--10~~~-------|--11--11---9--11---------------12--10~~~-------|
--X---X---X---X---------------12--------12----|---X---X---X---X---------------12--------12----|
-12--12--10--12--12--11--10-------------------|--12--12--10--12--12--11--10-----------------10|
-10--10---8--10-----------------------------10|--10--10---8--10-------------------------------|


  D   D    C  D
----------------------------------------------|-----------------------------------------------|
----------------------------------------------|-------------------------------12--------------|
-11--11---9--11---------------12--10~~~-------|--11--11---9--11---------------12--10~~~-------|
--X---X---X---X---------------12--------12----|---X---X---X---X---------------12--------12----|
-12--12--10--12--12--11--10-------------------|--12--12--10--12--12--11--10-----------------10|
-10--10---8--10-----------------------------10|--10--10---8--10-------------------------------|


  D   D    C  D
----------------------------------------------|-----------------------------------------------|
----------------------------------------------|-------------------------------12--------------|
-11--11---9--11---------------12--10~~~-------|--11--11---9--11---------------12--10~~~-------|
--X---X---X---X---------------12--------12----|---X---X---X---X---------------12--------12----|
-12--12--10--12--12--11--10-------------------|--12--12--10--12--12--11--10-----------------10|
-10--10---8--10-----------------------------10|--10--10---8--10-------------------------------|


  G   G   F   G
-----------------------------------------------|-----------------------------------------------|
-12--12--10--12--------------------------------|-12--12--10--12--------------------------------|
-12--12--10--12--------------------------------|-12--12--10--12--------------------------------|
-12--12--10--12--12--11--10-----8-8b-----------|-12--12--10--12--12--11--10-----8-8---8--------|
-10--10---8--10--------------10------10--10----|-10--10---8--10--------------10---------10-----|
-----------------------------------------------|-------------------------------------------10--|

 D   D    C  D
----------------------------------------------|-----------------------------------------------|
----------------------------------------------|-----------------------------------(0)~~~------|
-11--11---9--11-------------------------------|--11--11---9--11-------------------10----------|
--X---X---X---X-------------------XX----------|---X---X---X---X--------------------------12\--|
-12--12--10--12--12--11--10-----8-XX----------|--12--12--10--12--12--11--10-------------------|
-10--10---8--10--------------10------10--/10--|--10--10---8--10--------------10--------------0|

 A                                   C           G
-0---0-0---------------------------|-------------3-----x-----|
-2---2-2---------------------------|-5-----x-----3-----x-----|
-2---2-2---------------------------|-5-----x-----4-----x-----|-Do this 3 times
-2---2-2---------------------------|-5-----x-----5-----x-----|
-0---0-0---------------------------|-3-----x-----5-----x-----|
-----------------------------------|-------------3-----x-----|

 A
-0---0-0-----0-0-----0-0---0|-0-----0-0-0---0-0---0---0------|
-2---2-2-----2-2-----2-2---2|-2-----2-2-2---2-2---2---2------|
-2---2-2-----2-2-----2-2---2|-2-----2-2-2---2-2---2---2------|
-2---2-2-----2-2-----2-2---2|-2-----2-2-2---2-2---2---2------|
-0---0-0-----0-0-----0-0---0|-0-----0-0-0---0-0---0---0------|
----------------------------|---------------------------/10--|

  D   D    C  D
----------------------------------------------|-----------------------------------------------|
------------------------------12~-------------|-------------------------------12~-------------|
-11--11---9--11---------------12~-10~~~-------|--11--11---9--11---------------12~-10~~~-------|
--X---X---X---X---------------12~-------12----|---X---X---X---X---------------12~-------12----|
-12--12--10--12--12--11--10-------------------|--12--12--10--12--12--11--10-------------------|
-10--10---8--10-------------------------------|--10--10---8--10-------------------------------|

  D   D    C  D                                                              rake
----------------------------------------------|------------------------------------------------|
----------------------------------------------|------------------------------------------------|
-11--11---9--11---------------12--10~~~-------|--11--11---9--11-----------------12-10~~~-------|
--X---X---X---X---------------12--------12----|---X---X---X---X----------10---12--------12-----|
-12--12--10--12--12--11--10-------------------|--12--12--10--12--12--11--10-------------------0|
-10--10---8--10-----------------------------10|--10--10---8--10--------------------------------|


 D   D    C  D
-----------------------------------------------|
------------------------------12---------------|
-11--11---9--11---------------12-10~~~---------|
-12--12--10--12---------------12--------12-----|
-12--12--10--12--12--11--10-----------------10-|
-10--10---8--10--------------------------------|


 G   G   F   G
-----------------------------------------------|--------------------------------------------|
-12--12--10--12--------------------------------|-12--12--10--12-----------------------------|
-12--12--10--12--------------------------------|-12--12--10--12-----------------------------|
-12--12--10--12--12--11--10-----8-8b-----------|-12--12--10--12--12--11--10------8b---------|
-10--10---8--10--------------10------10--10----|-10--10---8--10--------------10------10-----|
-----------------------------------------------|----------------------------------------10--|

 A                                   C           G
-0---0-0---------------------------|-------------3-----x-----|
-2---2-2---------------------------|-5-----x-----3-----x-----|
-2---2-2---------------------------|-5-----x-----4-----x-----|-Do this 3 times
-2---2-2---------------------------|-5-----x-----5-----x-----|
-0---0-0---------------------------|-3-----x-----5-----x-----|
-----------------------------------|-------------3-----x-----|

 A
-0---0-0-----0-0-----0-0---0|-0-----0-0-0---0-0---0---0------|
-2---2-2-----2-2-----2-2---2|-2-----2-2-2---2-2---2---2------|
-2---2-2-----2-2-----2-2---2|-2-----2-2-2---2-2---2---2------|
-2---2-2-----2-2-----2-2---2|-2-----2-2-2---2-2---2---2------|
-0---0-0-----0-0-----0-0---0|-0-----0-0-0---0-0---0---0------|
----------------------------|---------------------------/10--|

Guitar Solo:                         Pre-Bend
---------------------------------------^----------------------|
----------------------------------12--------------------------|
----12--12B~~~~~~~------12-12B------12B12----12--12B~~~~~~----|
------------------------------------------------------------x-|
--------------------------------------------------------------|
--------------------------------------------------------------|

-------------------------------------------------------|
-----------------------9b------------------------------|
---9b--(9)p7--9--7-----9bb-----7~~~~~------------------|
-------------------------------------------------------|
-------------------------------------------------------|
-------------------------------------------------------|

-------------------------------------------------------|
--------------9b-----(9b)----9b------------------------|
--------7h9---9bb----(9bb)---9bb--(9)--7h9p7~~~~~------|
---7h9-------------------------------------------------|
-------------------------------------------------------|
-------------------------------------------------------|
 Grad. Bend
----------------------------------------------------------------|
----------------------------------------------------------------|
-10B-(10)BB----10BB-10Bbb----10B-10B~~~~--10-7--9B----7~~~--9B--|
----------------------------------------------------9-----------|
----------------------------------------------------------------|
----------------------------------------------------------------|


---------------------------------------------------------------|
---------------------------------------------------------------|
------7h9--9b----------7h9B-----9Bb--9B-----7--9-----7h9--7~~~-|
-7h9--------------9------------------------------(9)-----------|
---------------------------------------------------------------|
---------------------------------------------------------------|


---------------------------------------------------------------|
/13~~~---------------------------------------------------------|
/14~~-12-10-11-----10-------------10h11---------(11)~~~~-------|
---------------(12)-----12p10--12------------------------------|
---------------------------------------------------------------|
---------------------------------------------------------------|

-----10-------------------------------------------------------|
---------------------------------13---------------------------|
x/x-------10b-------10--12B~~~~-----12B---12--10~~~-12--12/14-|
---------------12---------------------------------------------|
--------------------------------------------------------------|
--------------------------------------------------------------|

---------------------------10--------------------------------------|
--13----------------10-10------------------------------------------|
-----12/14-10-12B--------------12b-(12)p10---10b-------------------|
------------------------------------------12------12---------------|
------------------------------------------------------12~~~~-------|
-------------------------------------------------------------------|


---------------------------------------------------------------------------|
-------------------------10-12-------------13---13-13h15-13----------------|
-------------10----10----10-12--12/14~~~-----14-------------14\12-10b------|
-10----10----10h12-10h12---------------------------------------------------|
-10h12-10h12---------------------------------------------------------------|
---------------------------------------------------------------------------|


----------------------------------13---------------------------------------|
----------------13----15B-13-15---13-15p13---------------------------------|
12p10--12/14~~~----14----------------------14\12-10b---------12--10--------|
-x-----------------------------------------------------12-12---------------|
---------------------------------------------------------------------------|
---------------------------------------------------------------------------|

-------------------------------------------------------|
----------13-13---13-----------------------------------|
--12/14------14---1414\12-10b--------------------------|
------------------------------------12p10-----10h12----|
------------------------------------------12-----------|
-----------------------------------------------------10|
Reference to Solo-

Bends:

B-Full

b-Half

bb-3/4

Bbb-1 3/4

BB-2

Others:

x-Mute String

~-vibrato

\-Slide Up

/-Slide Down

H-Hammer On

P-Pull Off

 D   D    C  D
-----------------------------------------------|-----------------------------------------------|
-----------------------------------------------|-----------------------------------------------|
-11--11---9--11--------------------------------|-11--11---9--11---------------12~--10~~~-------|
-12--12--10--12--------------------------------|-12--12--10--12---------------12~--------12----|
-12--12--10--12--12--11--10-----8~~~-----------|-12--12--10--12--12--11--10------------------10|
-10--10---8--10--------------10-----10-/10-----|-10--10---8--10------------------------------10|

 D   D    C  D
----------------------------------------------|-----------------------------------------------|
----------------------------------------------|-------------------------------12--------------|
-11--11---9--11---------------12--10~~~-------|--11--11---9--11---------------12--10~~~-------|
--X---X---X---X---------------12--------12----|---X---X---X---X---------------12--------12----|
-12--12--10--12--12--11--10-------------------|--12--12--10--12--12--11--10-----------------10|
-10--10---8--10-----------------------------10|--10--10---8--10-------------------------------|


 D   D    C  D
----------------------------------------------|-----------------------------------------------|
----------------------------------------------|-------------------------------12--------------|
-11--11---9--11---------------12--10~~~-------|--11--11---9--11---------------12--10~~~-------|
--X---X---X---X---------------12--------12----|---X---X---X---X---------------12--------12----|
-12--12--10--12--12--11--10-------------------|--12--12--10--12--12--11--10-----------------10|
-10--10---8--10-----------------------------10|--10--10---8--10-------------------------------|


 G   G   F   G
-----------------------------------------------|--------------------------------------------|
-12--12--10--12--------------------------------|-12--12--10--12-----------------------------|
-12--12--10--12--------------------------------|-12--12--10--12-----------------------------|
-12--12--10--12--12--11--10-----8-8b-----------|-12--12--10--12--12--11--10------8b---------|
-10--10---8--10--------------10------10--10----|-10--10---8--10--------------10------10-----|
-----------------------------------------------|----------------------------------------10--|


 D   D    C  D
----------------------------------------------|-----------------------------------------------|
----------------------------------------------|-------------------------------12--------------|
-11--11---9--11---------------12--10~~~-------|--11--11---9--11---------------12--10~~~-------|
--X---X---X---X---------------12--------12----|---X---X---X---X---------------12--------12----|
-12--12--10--12--12--11--10-------------------|--12--12--10--12--12--11--10-----------------10|
-10--10---8--10-----------------------------10|--10--10---8--10-------------------------------|


 A                                   C           G
-0---0-0---------------------------|-------------3-----x-----|
-2---2-2---------------------------|-5-----x-----3-----x-----|
-2---2-2---------------------------|-5-----x-----4-----x-----|-Do this 3 times
-2---2-2---------------------------|-5-----x-----5-----x-----|
-0---0-0---------------------------|-3-----x-----5-----x-----|
-----------------------------------|-------------3-----x-----|

 A
-0---0-0-----0-0-----0-0---0|-0-----0-0-0---0-0---0---0------|
-2---2-2-----2-2-----2-2---2|-2-----2-2-2---2-2---2---2------|
-2---2-2-----2-2-----2-2---2|-2-----2-2-2---2-2---2---2------|
-2---2-2-----2-2-----2-2---2|-2-----2-2-2---2-2---2---2------|
-0---0-0-----0-0-----0-0---0|-0-----0-0-0---0-0---0---0------|
----------------------------|--------------------------------|

 Begin fade
-0---0---0-----0-0-----0--0---0--|-0---0---0-0-0-0---0-0--|-0---0-0--0----0-0-|
-2---2---2-----2-2-----2--2---2--|-2---2---2-2-2-2---2-2--|-2---2-2--2----2-2-|
-2---2---2-----2-2-----2--2---2--|-2---2---2-2-2-2---2-2--|-2---2-2--2----2-2-|
-2---2---2-----2-2-----2--2---2--|-2---2---2-2-2-2---2-2--|-2---2-2--2----2-2-|
-0---0---0-----0-0-----0--0---0--|-0---0---0-0-0-0---0-0--|-0---0-0--0----0-0-|
---------------------------------|------------------------|-------------------|

 Fade out
-0---0-|
-2---2-|
-2---2-|
-2---2-|
-0---0-|
-------|

3. WORLD OF PAIN  by Gail Collins and Felix Pappalardi

F          A      Dm  Dm/C   G
Outside my window is a tree.
F          A      Dm  Dm/C   G
Outside my window is a tree.
               B
There only for me.
       D             C#          F#
And it stands in the gray of the city,
            Bm           E        C#
No time for pity for the tree or me.

  A     D             A
  There is a world of pain
  D              A
  In the falling rain
  D
  Around me.
[ Tab from: http://www.guitaretab.com/c/cream/65042.html ]
F          A      Dm  Dm/C   G
Is there a reason for today?
F          A      Dm  Dm/C   G
Is there a reason for today?
         B
Do you remember?
       D             C#          F#
I can hear all the cries of the city,
            Bm           E        C#
No time for pity for a growing tree.

  Chorus

Solo:
-------------------------------------------------------------------|
----------------------------------------------------------12-------|
-14~~-12-14(17)-14(17)-14(17)-14-12-14(17)-14-12-14-12-14----14-12-|
-------------------------------------------------------------------|
-------------------------------------------------------------------|
-------------------------------------------------------------------|

-------------------------------------------------------------------|
----------13----------13(15)13----13-12----------------------------|
-14-12-14----14-12-14----------14-------14-12----12-14-12----12h14-|
----------------------------------------------14----------14-------|
-------------------------------------------------------------------|
-------------------------------------------------------------------|

------------5----------------------|
--------------8-5------------------|
-14--12~~---------7(9)-7-5--7-5--5-|
-----------------------------------|
-----------------------------------|
-----------------------------------|


Repeat First Verse

  Chorus

Outro Solo similar to first solo


4. Dance The Night Away

DANCE THE NIGHT AWAY  by Jack Bruce and Pete Brown

played on an electric 12-string


Intro:

guitar 1:
(2x)
--------------------------|
---------------------7----|
----------5--------7---7--|
-------5---------7--------|
-0--7--------7/9----------|
--------------------------|
guitar 2:
(2x)
----------12-------------14-------|
-------13-------------15----15----|
----12-------------14----------14-|
-14----------14/16----------------|
----------------------------------|
----------------------------------|

Verse:
      Dm      Em     Am
Gonna build myself a castle

(riff 1)

Dm      Em     Am
High up in the clouds.
            Dm      Em       Am
There'll be skies outside my window;
F      Em     Dm        E
Lose these streets and crowds.
E      D    C   B  Am  D Am D
Dance the night away.

     Dm      Em     Am
Will find myself an ocean,
Dm      Em     Am
Sail into the blue,
Dm        Em     Am
Live with golden swordfish,
F      Em   Dm      E
Forget the time of you.
E      D    C   B  Am  D Am D
Dance the night away.

Dm      Em      Am
Dance myself to nothing.
Dm      Em       Am
Vanish from this place.
       Dm    Em      Am
Gonna turn myself to shadow
F      Em   Dm      E
So I can't see your face.
E      D    C   B  Am  D Am D
Dance the night away.

5.Blue Condition

BLUE CONDITION  by Ginger Baker


Intro:
-------------------0---------|
--8\--6--5h6p5--3--1---------|
-------------------0---------|
-10\--7--5h7p5--3--2-------0-|
-------------------3-----2---|
----------------------3------|

                G     C  G                      C G
Don't take the wrong direction passing through
            G     C  G                      C G
Instead of deep reflection of what's true,
            G  C  G                               C G
For it's a combination of judgments made by you
              G    C  G                         C G
That cause a deep dejection all the way through.

  C
  No relaxation,
-------------|
-------------|
-8(10)-------|
-------10----|
----------10-|
-------------|
 no conversation,
----------------------|
----------------------|
-10(12)10--8(10)------|
-----------------10---|
----------------------|
----------------------|
                             G                C
 no variation in a very dark blue, blue condition.

Early rising every day.
You must be enterprising in your way,
For you will hear no laughter, nor see the sun;
Life would be one disaster all the way through.

  Chorus

  First Verse

  Chorus

  Chorus


6. Tales Of The Brave Ulysses

Tuning: EADGBe
For a strat with crybaby original go to the neck pickup for wah sound.


E|---------------------------------------|
B|------------------------5--------------|
G|-5----5h77b----5---5-----5h7-----5h7--|
D|-5h7-------------5h7------------7------|
A|---------------------------------------|
E|---------------------------------------|
   /  \     - /      \ /\   /  \/      \
After that there is some weird stuff under the symbol roll, I can't figure it out.
Try playing something like that quietly.

E|----------------------------------------|
B|----------------------------------------|I will call that "the lick"
G|---7----7----5----5----4----4----3----3-|
D|---7----7----5----5----5----5----3----3-|
A|----------------------------------------|
E|----------------------------------------|

First verse wah patteren:
    /\/  /\/  /\/  /\/  /-/  /-/  /\e/ /\e/
    /\/  /\/  /\/  /\/  /\/  /\/  /\e/ /\e/*5
E|---9~---------------------------5-----------------------------------|
B|---8~---------5--------------------8s5------5-----------------------|
G|---9~-----------7--57p5h7b9-----------7b9----75b6-------5h7-7-----|
D|----------------------------------------------------7p5h------------|
A|--------------------------------------------------------------------|
E|--------------------------------------------------------------------|
      /\/\/\/\  /-\  / Wah with beat>>>>>>>>>>>>>>>>>>>>>>>>>>
E|-----------5--------------------------------------------------------|
B|---------5----7(8)-5-------5----------------------------------------|
G|---5-7b9--------------7b9----7(9)-7-5-7-5-----5---------------------|
D|-------------------------------------------7-----7-7----------------|
A|--------------------------------------------------------------------|
E|--------------------------------------------------------------------|
>>>>>>>>>>>>>>>>>>>>>>>>>>>>>>>>>>>>>>>>>>>>>>>>>>>>>>>>>>>>>>>>>>>>>>>
The lick
-----7----7----5----5----54----54----3----3-------------------------
    /\/  /\/  /\/  /\/  /\/  /\/  /\e/ /\e/*4


E|-------------------------------10------------------------------|
B|--13---13----------------------13------------------------------|
G|--14---14--12--1012b14--------14-----12-10-12----10-14--------|
D|--------------------------------------------------12-----------|
A|---------------------------------------------------------------|
E|---------------------------------------------------------------|
   / \   /\  /   \  /--\        /\e     / \/  /\    / - \e

E|-------10---------------------------------------10--------------------|
B|----10----13-10------------------------------------13-10----10--------|
G|-13-------------14-12-10-12--------10-12-12(14)----------12----12s10--|
D|--------------------------------10------------------------------------|
A|----------------------------------------------------------------------|
E|----------------------------------------------------------------------|
    / -   \e / \   /\ /\ /\/\     /  ---------\    \ /\ /\ / \ /\ ------| /
E|-----------------10---------------------------------------------------|
B|--------------------13p10----10---------------------------------------|
G|----12-----10-12----------12----10h12p10------------------------------|
D|-12----12-------------------------------------------------------------|
A|----------------------------------------------------------------------|
E|----------------------------------------------------------------------|
    / \  /    /\ /\ \e \ /   / \  / ---- \

Final solo

E|----------------------------------------------------------------------|
B|-------------------10-------------------------------------------------|
G|-7-7-7-7-7-7-7-7------12p10----10h12p10----10h12p10----10h12p10-------|
D|----------------------------12----------12----------12----------12----|
A|----------------------------------------------------------------------|
E|----------------------------------------------------------------------|
   /\/\/\/\/\/\/\/  \  /   \/ /   /-----\ /  /-------\/  /------\-------| /
E|----------------------------------------------------------------------|
B|----------------------------------------------------------------------|
G|-10-12p10-12p10----10h12p10----10h12p10----10h12p10---10h12p10--------|
D|----------------12----------12----------12---------------------12-----|
A|----------------------------------------------------------------------|
E|----------------------------------------------------------------------|
    /  / \   / \  /  /-------\/  /-------\ / --------\   /------\-------| /
E|---------------------10-----------------------------------------------|
B|------------------------13p10--------10-------------------------------|
G|------------------------------12b14-----12b14--12-10h12p10---10-12/14-|
D|-10h12p10----10h12/---------------------------------------12----------|
A|----------12----------------------------------------------------------|
E|----------------------------------------------------------------------|
    /-----\ /  / \    \e /---\  /---\ \e  /---\   / --------\-----------| / \e

E|----14--------------------------------------10-------13----13-13-13-13-13-13--|
B|------------------------------------------------15------15-15-15-15-15-15-15--|
G|-14-----14-14-14-14\12-10h12p10----10h12/14-----------------------------------|
D|--------------------------------12--------------------------------------------|
      /  /\ /\/ /\ /---\  /-----\ / /------\  \e /         /\ /\/\/\/\----------|


E|-13----13-15b17--15-13h15p13-----13-15b17---13--15--13-------------13---|
B|----15------------------------15------------------------15-15-15-15-----|
   /\ /  \  /---\  /  /--------\/  /  /--\    /\  /    \  /\ /\ /\ /\-----|

7.SWLABR

chord
E7sus4/6

-0----|
-0----|
-2----|
-0----|
-4----|
-0----|

intro

gtr1
 E     G     A     G     E        D  E
-------------------------------------0-|
-0-----------------------0-----0--3--0-|
-1-----4-----6-----4-----1-----1--2--1-|
-2-----5-----7-----5-----2-----2--0--2-|
-2-----5-----7-----5-----2-----2-----2-|
-0--0--3--3--5--0--3--0-----0--0-----0-|

gtr2
---------------------------------------------------|
---------------------------------------------------|
--------12-12-14-~--14-12(13)----------------------|
-14--14-----------------------14-12-14~~-12~~-14~~-|
---------------------------------------------------|
---------------------------------------------------|

verse
riff 1
 A   G   E
-----------------|
-14--12----------|
-14--12--13~~----|
---------14~~----|
-----------------|
-----------------|


E         E7sus     E       A G E    E       E7sus   E      A G E
Coming to me in the morning,         leaving me at night.
E         E7sus     E        A G E   E       E7sus  (intro riff 1x)
Coming to me in the morning,         leaving me alone.
                C
You've got that rainbow feel

----------------|
----------------|
-14(16)14p12----|
----------------|
-------------14-|
----------------|

B
 but the rainbow has a beard.

(intro riff 1x)

E         E7sus     E   A G E    E       E7sus   E      A G E
Running to me a-cryin'           when he throws you out.
E         E7sus     E   A G E   E       E7sus  (intro riff 1x)
Running to me a-cryin',         on your own again.
                C
You've got that pure feel, such good responses,

------------12--------------------------------------------|
--15(17)~~-----15-----------------------------------------|
------------------14(16)-14-12-14(16)~~----14(16)14p12----|
----------------------------------------------------------|
-------------------------------------------------------14-|
----------------------------------------------------------|

B
 But the picture has a mustache.

(Intro riff 1x)

C#                                                 E7#9
You're coming to me with that soulful look on your face,

------------------------------------|
-17(20)--17(20)17---17-15-17-15~-17-|
------------------------------------|
------------------------------------|
------------------------------------|
------------------------------------|

C          F    C            F   C         C          B
Coming looking like you've never ever done one wrong thing.

---------------------------------------------|
---------------------------------------------|
------9----9--9--11--9-----9--11(14)--11(14)-|
-9/11---11--------------11-------------------|
---------------------------------------------|
---------------------------------------------|

solo
------------------------------------------------------------|
----------14---------------------15(17)~--17(20)-17(20)17---|
-16(18)~-----16(18)~--16-14--13-----------------------------|
------------------------------------------------------------|
------------------------------------------------------------|
------------------------------------------------------------|

--------------------------------------------------------|
----15-17-15~~-------------------10-12------------------|
-16-----------------9-11--11(13)-------11(13)-9-11-9----|
----------------/11----------------------------------11-|
--------------------------------------------------------|
--------------------------------------------------------|

--------------------------------------|
-15(17)15-12--------------------------|
-------------14(16)-14-12-------14-12-|
--------------------------14-14-------|
--------------------------------------|
--------------------------------------|

(Intro riff x1)

C#                                                 E7#9
You're coming to me with that soulful look on your face.

--------------------------|
-17(20)17--17-15-17-15-17-|
--------------------------|
--------------------------|
--------------------------|
--------------------------|
(play C and F at 8th fret position)
       C          F    C            F   C         C          B
You're coming looking like you've never ever done one wrong thing.

----------------------------------------------|
----------------------------------------------|
----12(14)-12(14)-12-9-11(13)11-9--11----9----|
-11-----------------------------------11---11-|
----------------------------------------------|
----------------------------------------------|

E         E7sus     E    A G E    E       E7sus   E      A G E
So many fantastic colors;      I feel in a wonderland.
E         E7sus     E  A G E   E       E7sus  (intro riff 1x)
Many fantastic colors          makes me feel so good.
                C
You've got that pure feel,

-----------------------------------------|
-15(17)15p12----12-15(17)-15p12----12~~~-|
-------------14-----------------14-------|
-----------------------------------------|
-----------------------------------------|
-----------------------------------------|

such good responses.
-----------------------------------------|
--------15-------------------------------|
-14(16)----14h16-14(16)-14-12-14-12~~----|
-----------------------------------------|
-----------------------------------------|
-----------------------------------------|
                            B
You've got that rainbow feel
-----------------------|
-----------------------|
-14(16)14-12(13)-------|
-----------------14----|
--------------------14-|
-----------------------|

but the rainbow has a beard.

(intro riff x1)

  G     A
-----------------|
-----------------|
--------12-12-14-|
-/14-14----------|
-----------------|
-----------------|

8.We're Going Wrong

Em F#m G F#m

 Em    F#m  G   F#m         Em     F#m  G  F#m
Please, 	open your eyes
 Em    F#m  G   F#m    Em     F#m  G  F#m
Time 		to realize
Am Bm          C
I found out today
D            Em   F#m G
We?re going wrong
F#m          Em   F#m G F#m
We?re going wrong

repeat Em F#m G F#m

 Em    F#m  G   F#m       Em     F#m  G  F#m
Please, 	open your mind
 Em    F#m  G   F#m          Em     F#m  G  F#m
See 		what you can find
Am Bm          C
I found out today
D            Em   F#m G
We?re going wrong
F#m          Em   F#m G F#m
We?re going wrong

repeat Em F#m G F#m

9. Outside Woman Blues

Intro:
(main riff)

(2x)  E7#9
--------------------|
------8-------------|
------7-------------|
------6-------------|
------7-----7-----5-|
-0-0-----7h9--5h7---|

---------------------------------|
---------------------------------|
----12-14(15)14-12----12~--------|
-14----------------14-----14~~---|
---------------------------------|
---------------------------------|

(continue intro pattern throughout verse)

E7#9
If you lose your money, great God, don't lose your mind.
E7#9
If you lose your money, great God, don't lose your mind.
           B7#9
And if you lose your woman, please don't fool with mine.

E7#9
I'm gonna buy me a bulldog, watch my lady whilst I sleep.
E7#9
I'm gonna buy me a bulldog, watch my lady whilst I sleep.
           B7#9
'Cause women these days, they're so doggone crooked,
That they might make off 'fore day creep.

E7#9
Well, you can't watch your wife and your outside women, too.
E7#9
You know you can't watch your wife and your outside womens, too.
           B7#9
Cause when you're out with your women, your wife will be at home,
Cooking your food, doing a dirt, buddy what you trying to do?


Solo:
----------12-----------------------------------------------------------|
-------12----15-12----------------------------------------15-17--------|
-14(16)------------14(16)--14-12-14-12-------12(14)-14/16-------15\14--|
---------------------------------------14-14---------------------------|
-----------------------------------------------------------------------|
-----------------------------------------------------------------------|

---------------------------------12----------------------------------|
--------12----------------15(17)----15-12----------------------------|
-12-14-----14-12-14-12~~-----------------14(16)-14-12-14-12----------|
------------------------------------------------------------14-14-14-|
---------------------------------------------------------------------|
---------------------------------------------------------------------|

------------------12-----15(17)--15(17)--15-12-----------------------|
----------------12----12----------------------12---------------------|
-12----14-12(14)--------------------------------14(16)-14-12-14-12~~-|
----14---------------------------------------------------------------|
---------------------------------------------------------------------|
---------------------------------------------------------------------|

----17(19)-17(19)--17-15-17----17(19)-15-17-15-------------------------|
-17-------------------------17-----------------17-17(20)-15(16)--------|
----------------------------------------------------------------16\14~-|
-----------------------------------------------------------------------|
-----------------------------------------------------------------------|
-----------------------------------------------------------------------|

-----------------------------------------|
-15p12----12-----------------------------|
-------14-----14(16)--14--12--12---------|
----------------------------------14~~~~-|
-----------------------------------------|
-----------------------------------------|

E7#9
You can't watch your wife and your outside womens, too.
-----------------------------------------|
-----12--14(15)14--12------12(13)--------|
-13--12--14(15)14--12--13--12(13)--13~~~-|
-14--------------------14----------14~~~-|
-----------------------------------------|
-----------------------------------------|
E7#9
You know you can't watch your wife and your outside women, too.
           B7#9
When you're out with your women, your wife will be at home,
Doing a dirt, cooking your food, buddy what you trying to do?

10. Take It Back

Intro:
(triplets)
----------------------------------------------------------------------|
-13(15)-(15)-(15)-(15)-(15)-(15)---13(15)-(15)--(15)--(15)--(15)-(15)-|
----------------------------------------------------------------------|
----------------------------------------------------------------------|
----------------------------------------------------------------------|
----------------------------------------------------------------------|

---------------------------------------------------------|
-13(15)-(15)-(15)--13(15)-(15)-(15)-13(15)13-10----10----|
------------------------------------------------12----10-|
---------------------------------------------------------|
---------------------------------------------------------|
---------------------------------------------------------|

-------------------------------10-|
----------10----10----------------|
----10-11----12----12-10h11-------|
-12-------------------------12----|
----------------------------------|
----------------------------------|

D                       A7 Ab7 G7                           D
Take it back, take it back,   take that thing right out of here.
A         D       A7 Ab7 G7                            D
Right away, far away,    take that thing right out of here.


Am A#m Bm                      Am A#m Bm
         Don't let them take me       to where streams are red.
Am A#m Bm                      Am A#m Bm
        I want to stay here           and sleep in my own bed.
G7
Need all your loving, long blonde hair,
Don't let them take me 'cause I'm easily scared.
C#7 D                     A7  Ab7 G7                            D
    Take it back, take it back,   take that thing right out of here.

--------------------------------------|
---7-----8-----9---10\----------------|
--------------------------------5-6-7-|
-7---7-8---8-9---9-10\-7-7-7--7-------|
--------------------------------------|
--------------------------------------|

  Chorus

Am A#m Bm                    Am A#m Bm
       I got this great need,       the need to stay alive.
Am A#m Bm                      Am A#m Bm
       Not ashamed of my creed,        I've got to survive.
G7
So come on baby, don't go away,
Just let them save me for a rainy day.
C#7 D                     A7  Ab7 G7                            D
    Take it back, take it back,   take that thing right out of here.

Repeat 2nd Verse

  Chorus

Am A#m Bm                Am A#m Bm
        I got this thing,        I've got to keep it sharp.
Am A#m Bm         Am A#m Bm
Don't go to places         where it won't shine in the dark.
G7
So come on baby, don't go away,
Just let them save me for a rainy day.
C#7 D                     A7  Ab7 G7                            D
    Take it back, take it back,   take that thing right out of here.

Outro:
---------------------------------|
---7-----8-----9---10-/12--10~~--|
---------------------------------|
-7---7-8---8-9---9-10-/12--10~~--|
---------------------------------|
---------------------------------|

11. Mother's Lament

(traditional)
(a capella)
Are we rolling?  A one, a two, a three, a four...

A mother was washing her baby one night;
The youngest of ten and a delicate mite.
The mother was poor and the baby was thin;
'Twas naught but a skeleton covered with skin.

The mother turned 'round for a soap off the rack.
She was only a moment but when she turned back
Her baby had gone, and in anguish she cried,
"Oh, where has my baby gone?"  The angels replied:

Oh, your baby has gone down the plug hole.
Oh, your baby has gone down the plug.
The poor little thing was so skinny and thin,
He should have been washed in a jug, in a jug.

Your baby is perfectly happy;
He won't need a bath anymore.
He's a-muckin' about with the angels above,
Not lost but gone before.

Do you want to do it again?
Related for Disraeli Gears tab