Song name
# A B C D E F G H I J K L M N O P Q R S T U V W X Y Z

Crease - Butterfly Stitces tab

Band: Crease
Song: Butterfly Stitches
Album: Vindication
Tabbed by: Jerry
Email: gitarkid@hotmail.com
Tunning: Standard


Chorus
-----------------------------------------------------
-----------------------------------------------------
-----------------------------------------------------
------6------6---------8------6-----------6------6---
-8-8--4--6H8---8--6-6--6--6H8---8----8-8--4--6H8---8-
-6-6--------------4-4----------------6-6-------------

Chorus Ending
------------------
------------------
------------------
------8-8-6-------
-6-6--6-6-4-------
-4-4--------------

Interlude
------------------------------------------------------
------------------------------------------------------
------------------------------------------------------
------------------------------------------------------
-8-8-xxx--8-8-xxx--8-8-xxx--8-8-xxx--6-6-xxx--6-6-xxx-
-6-6-xxx--6-6-xxx--6-6-xxx--6-6-xxx--4-4-xxx--4-4-xxx-
the next part ends wierd i havent figured it out yet.
Tap to rate this tab
 
# A B C D E F G H I J K L M N O P Q R S T U V W X Y Z