Song name
# A B C D E F G H I J K L M N O P Q R S T U V W X Y Z

Crease - Frustration tab

Help us improve GuitareTab! Take a short survey!
Artist: Crease
Album: Vindication
Song: Frustration
Tuning: Standard
Email: gitarkid@hotmail.com

Intro/Outro
----------------------------------------------
----------------------------------------------
---------------------3-3----------------------
---5-5--------------1-1----5-5-------------888
--3-3--6-6/--3-3----------3-3----6-6--3-3--666
------4-4---1-1-----------------4-4--1-1------

-------------------------------------------
-------------------------------------------
-------------------------------------------
-5------------------------------x-8-x-8----
-3-X's8--5-X's8---6-X8--3-x's8--x-6-x-6----
---------3--------4-----1------------------

"X's8" means play 8 times^

Chorus
i forgot how the rythym goes for this part, so heres the basic chords:-/
----------------------------
----------------------------
----------------------------
-55-----888-----------------
-33-66--666-888-------------
----44------666-------------

----------------------------
----------------------------
-5-5-xx------5-5-x----------
-3-3-xx-5-6--3-3-x-5-5-6-3--
--------3-4--------3-3-4-1--

Solo
this is jus the first part, i havent the slighest
clue how to play the second part

--------------------------------------------------------
--------------------------------------------------------
-5---5h7--7h8--10^-10-8-7-8-7h8p7-5-8-7-8-7-------------
--------------------------------------------------------
--------------------------------------------------------
--------------------------------------------------------

then the rest of the song is jus the chorus and the intro
Related for Frustration tab