Song name
# A B C D E F G H I J K L M N O P Q R S T U V W X Y Z

Creature Feature - How To Serve Man tab

-------------------------------------------------------------------------------
			     How to Serve Man - Creature Feature
-------------------------------------------------------------------------------
Tabbed by: Hughf
Email: freemanfamily2005@hotmail.com

Tuning:Standard

 Intro: pt. 1
e|---------------------------------------------------------------------------|
B|---------------------------------------------------------------------------|
G|-----------9--------9/10~-9----------9-----8-------------------------------|
D|-9-9-7-6-7----6-7-9----------9-7-6-7----7h9---9p7--------------------------|
A|---------------------------------------------------------------------------|
E|---------------------------------------------------------------------------|
 Intro: pt. 2
e|---------------------------------------------------------------------------|
B|---------------------------------------------------------------------------|
G|-9-9-9p8-------9-9-9p8-10--9-9-9p8-----------------------------------------|
D|---------10-7----------------------10-7--6-6-6/7-9-10p7--------------------|
A|---------------------------------------------------------------------------|
E|---------------------------------------------------------------------------|

 Mid-Verse Riff:
e|---------------------------------------------------------------------------|
B|---------------------------------------------------------------------------|
G|---------------------------------------------------------------------------|
D|-9-7--9-7--9-7-10~---9-7--9-7--9-7-6~--------------------------------------|
A|---------------------------------------------------------------------------|
E|---------------------------------------------------------------------------|

 Chorus: (play around with the rhythm)
e|---------------------------------------------------------------------------|
B|---------------------------------------------------------------------------|
G|----------9----------------------------------------------------------------|
D|-7--9-10--9----7--9-10--9--7-----------------------------------------------|
A|-7--9-10--7----7--9-10--9--7-----------------------------------------------|
E|-5--7--8-------5--7--8--7--5-----------------------------------------------|
   A5 B5 C5 E5   A5 B5 C5 B5 A5

Note: Intro pt. 2 is also the bridge.




| /  slide up
| \  slide down
| h  hammer-on
| p  pull-off
| ~  vibrato
| +  harmonic
| x  Mute note
===============================================================================
Tap to rate this tab
 
# A B C D E F G H I J K L M N O P Q R S T U V W X Y Z