Guitaretab - guitar tabs
Song name
# A B C D E F G H I J K L M N O P Q R S T U V W X Y Z

Creature Feature - A Corpse In My Bed tab

-------------------------------------------------------------------------------
			     A Corpse in My Bed - Creature Feature
-------------------------------------------------------------------------------
Tabbed by:Hughf
Email:freemanfamily2005@hotmail.com

Tuning: Standard

 Intro:
e|---------------------------------------------------------------------------|
B|---------------------------------------------------------------------------|
G|---------------------------------------------------------------------------|
D|10-9-10-99-----------------------------------------------------------------|
A|-x-x--x-xx-----------------------------------------------------------------|
E|-8-7--8-77-----------------------------------------------------------------|

 Verse:
e|---------------------------------------------------------------------------|
B|---------------------------------------------------------------------------|
G|---------------------------------------------------------------------------|
D|10-9-10-99-----------------------------------------------------------------|
A|-x-x--x-xx-9999999999999999------------------------------------------------|
E|-8-7--8-77-7777777777777777------------------------------------------------|
pm           ................
 Mid-Verse:
e|---------------------------------------------------------------------------|
B|---------------------------------------------------------------------------|
G|---------------------------------------------------------------------------|
D|---------------------------------------------------------------------------|
A|1212121212121212-1414141414141414------------------------------------------|
E|1010101010101010-1212121212121212------------------------------------------|

 Chorus:
e|---------------------------------------------------------------------------|
B|---------------------------------------------------------------------------|
G|---------------------------------------------------------------------------|
D|---------------------------------------------------------------------------|x2
A|1212121212121212-1414141414141414-9-9-9--9-9-9-9-9-9--9-9------------------|
E|1010101010101010-1212121212121212-7-7-7h10p7-7-7-7-7h10p7------------------|

 then...
[ Tab from: http://www.guitaretab.com/c/creature-feature/102794.html ]
e|--------------------------------------------------------------------------------------|
B|--------------------------------------------------------------------------------------|
G|--------------------------------------------------------------------------------------|
D|--------------------------------------------------------------------------------------|
A|1212121212121212-1414141414141414-9999-1212-5-2~-----1212121212121212-1414141414141414|
E|1010101010101010-1212121212121212-7777-1010-3-0~-----1010101010101010-1212121212121212|

 Bridge:
e|---------------------------------------------------------------------------|
B|---------------------------------------------------------------------------|
G|---------------------------------------------------------------------------|
D|10--9-10-9-10-1514--1514--1514--1514--10--9-10-9-7-52----------------------|
A|-x--x--x-x--x--x-x---x-x---x-x---x-x---x--x--x-x-x-xx----------------------|
E|-8--7--8-7--8-1312--1312--1312--1312---8--7--8-7-5-30----------------------|

Solo:
e|---------------------------------------------------------------------------|
B|---------------------------------------------------------------------------|
G|----------7---10-10-9p7----------7--9-7-9-9b10~----------------------------|
D|----7-8-9------------------7-8-9----------------x2-------------------------|
A|-99---------99----------99-------------------------------------------------|
E|-77---------77----------77-------------------------------------------------|


e|-----7-----7-----7-----7-----7-----7---------------------------------------|
B|-----7-----7-----7-----7-----7-----7---------------------------------------|
G|-9b11--9b11--9b11--9b11--9b11--9b11--10p9p7-10p9p7------7-7-7h9h10p9p7-7---|
D|---------------------------------------------------9-7h9-9-9----------9----|
A|---------------------------------------------------------------------------|
E|---------------------------------------------------------------------------|

e|-----7-----7-----7-----7-----7-----7-----------------------------------------|
B|-----7-----7-----7-----7-----7-----7-----------------------------------------|
G|-9b11--9b11--9b11--9b11--9b11--9b11--10-10h11p10-7-9-7-9-7-------------------|
D|----------------------------------------------------------9-7-9-7------------|
A|-----------------------------------------------------------------9-7-9-7-----|
E|------------------------------------------------------------------------10p7-|

e|---------------------------------------------------------------------------|
B|---------------------------------------------------------------------------|
G|---------------------------------------------------------------------------|
D|---------------1010-99-77--------------------------------------------------|x2
A|----99-1010-99------------1010----99-1010-99-------------------------------|
E|-77----------------------------77------------9-10-12-10-9h10\7-------------|




| /  slide up
| \  slide down
| h  hammer-on
| p  pull-off
| ~  vibrato
| +  harmonic
| x  Mute note
===============================================================================
Related for A Corpse In My Bed tab