Song name
# A B C D E F G H I J K L M N O P Q R S T U V W X Y Z

Creature Feature - Aim For The Head tab

-------------------------------------------------------------------------------
			     Aim for the Head - Creature Feature
-------------------------------------------------------------------------------
Tabbed by: Hughf
Email: freemanfamily2005@hotmail.com

Tuning: Standard

Intro/Bridge
e|---|--------------------------------------------------------------------------------------------|
B|---|----------------------------------------------------------------------8~--7h8p7------------8|
G|---|--------------------------------------------------------------------------------8~-7h8p7h8--|
D|---|-5~--4h5p4--------------5~--4h5p4--------------5~--4h5p4------------------------------------|
A|-6-|-----------6~--5h6p5h6------------6~--5h6p5h6------------6~--5h6p5h6------------------------|
E|---|--------------------------------------------------------------------------------------------|

Chorus
e|---------------------------------------------------------------------------|
B|-8-8--7h8p7h8----7h8p7h8----7h8p7h8-9~p8-----------------------------------|
G|--------------8----------7-------------------------------------------------|
D|---------------------------------------------------------------------------|
A|---------------------------------------------------------------------------|
E|---------------------------------------------------------------------------|

Solo
e|---------------------------------------------------------------------------|
B|---------------------------------------------------------------------------|
G|-8888888888888888--12--12\11/12\11-8888888888888888--7-7-7/8---------------|
D|-xxxxxxxxxxxxxxxx---x---x----------xxxxxxxxxxxxxxxx--x-x-x-----------------|
A|-6666666666666666--10--10\9/10\9---6666666666666666--5-5-5/6---------------|
E|---------------------------------------------------------------------------|

e|---------------------------------------------------------------------------|
B|---------------------------------------------------------------------------|
G|-8888888888888888--12- 12\11/12-15-8888888888888888--7-7-7/8---------------|
D|-xxxxxxxxxxxxxxxx---x---x--------x-xxxxxxxxxxxxxxxx--x-x-x-----------------|
A|-6666666666666666--10--10\9/10--13-6666666666666666--5-5-5/6---------------|
E|---------------------------------------------------------------------------|


| /  slide up
| \  slide down
| h  hammer-on
| p  pull-off
| ~  vibrato
| +  harmonic
| x  Mute note
===============================================================================
Tap to rate this tab
 
# A B C D E F G H I J K L M N O P Q R S T U V W X Y Z