Song name
# A B C D E F G H I J K L M N O P Q R S T U V W X Y Z

Creature Feature - Buried Alive tab

Band: Creature Feature
Song: Buried Alive
Tabbed By: Antonio LM Ortega

Enjoy, total credit to Chris for helping me figure this out.

Intro Part 1:
E|----11-----------13--------------------------------------------|
B|---------------------------------------------------------------|
G|-----------12-13--------12/8-----------------------------------|
D|--10--10------------13--------10--10p9h10h12/13----------------|
A|---------------------------------------------------------------|
E|---------------------------------------------------------------|


E|---------------------------------------------------------------|
B|---------------------------------------------------------------|
G|---12------13--13----------------------------------------------|
D|-----------------------------------------10--------------------|
A|-10--10--11--11------8h10p8/6h8p6------------------------------|
E|---------------------------------8---8-11----------------------|

Intro Part 2:
E|---------------------------------------------------------------|
B|---------------------------------------------------------------|
G|-------12-------------10-11----------12-------------10h11p10---|
D|-10-10----10----13-13----------10-10----10----13-13------------|
A|---------------------------------------------------------------|
E|---------------------------------------------------------------|
Tap to rate this tab
# A B C D E F G H I J K L M N O P Q R S T U V W X Y Z