Creature Feature - Death Of A Doll Maker tab

-----------------------------------------------------------------------------
                         Death Of A Doll Maker
-----------------------------------------------------------------------------
Artist: Creature Feature
Album: Unknown
Song: Death Of A Doll Maker
tuning: Standard

free download of Death Of A Doll Maker and Grave Robber At Large:
http://creaturefeature.bandcamp.com/track/death-of-a-doll-maker?
type=email&sig=b729c2858eb774d002a231c8985825ad&auto=mp3-320&payment_id=2490178691

Intro:
e----------------------------------------------------------------------------|
b----------------------------------------------------------------------------|
g-5-5-4--------4-5--4-4------------4--5-5-4--------4-5-----------------------|
d-------7--7-7----------7-6--6-6-7----------7--7-7------2-2-2h3-3-3p2--2-2p0-|
a----------------------------------------------------------------------------|
e----------------------------------------------------------------------------|
 00:14
e-----------------------------------------------------------------------------|
b-----------------------------------------------------------------------------|
g------------------------------2-3-4-2-3-4-2-3-4--4-5-------------------------|
d-0-0-------------------------------------------------------------------------|
a----3------------------------------------------------0-2-3-0-2-3-0-2-3-0-2-3-|
e------3-4-5-3-4-5-3-4-5-3-4-5------------------------------------------------|
00:24
e------------------------|----------------------------------------------------|
b------------------------|----------------------------------------------------|
g------------------------|---------------------------------2-2----1-1-----1-1-|
d-----2-2h3-3-3/5--5-5/6-|-4-4-----3-3-0-0-3-3-4---------------4-4----3-3-----|
-a-0-2-------------------|-----6-6---------------6-6-6-6-6--------------------|
e------------------------|----------------------------------------------------|
00:34                     00:55

e------------------------------------------|
b-------------------1-0---1-0---0----------|
g-2-------------1-2-----1-----1---2-1------|
d--4-4-4-4-4--4----------------------------|
a------------------------------------------|
e------------------------------------------|

couldnt quiet get the end of it i'll update this tab as soon as i feel what ive got is 
:) any corrections please feel free to comment.
Tap to rate this tab
 
# A B C D E F G H I J K L M N O P Q R S T U V W X Y Z