Song name
# A B C D E F G H I J K L M N O P Q R S T U V W X Y Z

Creature With The Atom Brain - Is That Lady Sniff tab

Artist: Creature With The Atom Brain
Song: "Is that lady sniff?"
Album: "I Am The Golden Gate Bridge"
Guitarists: Aldo Struyf & Michiel van Cleuvenbergen
Tuning: Standard

INTRO:
e|-------------------------------|-----------------------------|
B|-------------------------------|-----------------------------|
G|-------------------------------|-----------------------------|
D|-2p0------------7--7-5---------|--2p0------------7--7-7-5----|
A|-----3p0-4b--0---------7-5-3---|------3p0-4b--0-----------7--|
E|-------------------------------|-----------------------------|

VERSE: (chords, no strumming pattern)
e|-----------|
B|-----------|
G|-----------|
D|-7...5...--|
A|-7...5...--|
E|-5...3...--|

CHORUS:
e|----------------------|
B|----------------------|
G|----------------------|
D|-7--7--7-7-7-7-5-5-2--|
A|-7--7--7-7-7-7-5-5-2--|
E|-5--5--5-5-5-5-3-3-0--|

POST CHORUS:
e|----------------------------------------------|----------|
B|----------------------------------------------|----------|
G|----------------------------------------------|----------|
D|-7--7-7--7-7-7--5--5-5--5-5-5--3--3-3--3-3-3--|-7-5-3-2--|
A|-7--7-7--7-7-7--5--5-5--5-5-5--3--3-3--3-3-3--|-7-5-3-2--|
E|-5--5-5--5-5-5--3--3-3--3-3-3--1--1-1--1-1-1--|-5-3-1-0--|


LYRICS:
1. Sun comes up, mastermind,
don't feel blind, don't feel down.
Got two hats, what is nice,
getting up, I throw the dice.

2. So it's madness, so it's fun
is that lady sniff, or minds ???.
??? suffers, came to town,
a huge event, there's nothing around.

C: You've got nothing, get in the sun.
You've got nothing, get in the sun.
You've got nothing, get in the sun.
You've got nothing, get in the sun.

PC: Don't, you fall, or burn out.
Don't, you fall, just burn.

3. Mind yourself, mind the sound,
with open eyes, beneath the ground.
Not to worry, we will know,
'cause afterall, it's all a show.

C: You've got nothing, get in the sun.
You've got nothing, get in the sun.
You've got nothing, get in the sun.
You've got nothing, get in the sun.

PC: Don't, fall, or burn out.
Don't, fall, just burn.

---

Go easy on me - this is one of my first tabs. Also, I couldn't decipher the lead guitar 
fully, so I left it out for the time being.
Tap to rate this tab
 
# A B C D E F G H I J K L M N O P Q R S T U V W X Y Z