Guitaretab - guitar tabs
Song name
# A B C D E F G H I J K L M N O P Q R S T U V W X Y Z

Creed - Arms Wide Open tab

              -=[ NMKeith74@aol.com ]=-
            ~~ Accurate Notation ~~

        As Close To The Original Artist  

**Please take a moment and rate my sheet music** 
                     -=Thank You=-


The Playing Guide
_________________________________
                                 |
/ sl. (slide up)                 |
\ sl. (slide down)               | 
H, h  (hammer-on)                | 
P, p  (pull-off)                 | 
B, b (bend)   or 1 step        |
~  (vibrato)                     | 
+  (harmonic)                    |
PM,  (Palm mute)                 |
_________________________________|


Band: Creed
Song: With Arms Wide Open

Slowly = 71

 (Csus2) Riff -A-
|---------------------------------------------------|
|--0h1-----------1--------1h3-----1--------0h1p0----|
|---------0--------0-----------------0--------------|
|-----------0---------------------------------------|
|-------------3-------3--------3--------3-----------|
|--3------------------------------------------------|	

 (Csus2/B)
|---------------------------------------------------|
|-0h1-------1--1----------3-------0h1p0-----------0-|
|-----0-----------0-------0--------------0----------|
|-------0----------------------------------0--------|
|-2---------2---------2-------2--------------0------|
|---------------------------------------------------|	

|---------------------------------------------------|
|---------------------------------------------------|
|-0-------------------------------------------------|
|---------------------------------------------------|
|-----0---------------------------------------------|
|---------------------------------------------------|	

Repeat 2X

 Chours
 (F5)                        (Csus2)
|-0--------------3------3--3---3-----------------0--|
|-0--------------6------3--3---3------------4----0--|
|-4--------------5------5--5---5-----------------4--|
|-2--------------3-------------5-----------------2--|
|-2----------------------------3--------------------|
|-2-------------------------------------------------|	

 (E5)                      (Dsus2)
|-0---------------0----------5----------------------|
|-0---------------0----------5----------------------|
|-4---------------4----------7----------------------|
|-2---------------2----------7----------------------|
|-2---------------2----------5----------------------|
|-2---------------2---------------------------------|	

 (Csus2)                                 (Csus2/B)
|---------------------------------------------------|
|-0h1----------1------1h3----1------0h1p0---0h1-----|
|------0---------0---------0---0-----------------0--|
|---------------------------------------------------|
|----------3----------------------3-----------------|
|---------------------------------------------------|	

*let ring throughout

|---------------------------------------------------|
|--------1-----1h3-----1-----0h1p0--0h1------1------|
|----------0-------------0--------------0------0----|
|--0--------------------------------------0---------|
|-----2-------------2-------------------------------|
|---------------------------------------------------|	

|---------------------------------------------------|
|-3p1------1----0h1p0------0------------------------|
|-----0------0--------0------0----------------------|
|-------0---------------0---------------------------|
|---------------------------------------------------|
|---------------------------------------------------|	
[ Tab from: http://www.guitaretab.com/c/creed/191300.html ]
 (Csus2)       (Csus2/B)    (Am11)
|--0v-------------0v----------0v--------------------|
|--1v-------------3v----------1v--------------------|
|--0v-------------0v----------0v--------------------|
|--2v-------------0v----------2v--------------------|
|--3v-------------2v----------0v--------------------|
|---------------------------------------------------|

*let right -  -  -  -  -  -  -  -  -  -  -  -  -  -
|--3------------3--------3--------------------------|
|--1------------1--------1--------------------------|
|--0------------0--------0--------------------------|
|--2---------------------2--------------------------|
|------------------------0--------------------------|
|---------------------------------------------------|	

CHORUS

 (F5)
|---------------------------------------------------|
|-6-----6--6-----6-------6---6------6---6-----6-----|
|-5-----5--5-----5-------5---5------5---5-----5-----|
|-3-----3--3-----3-------3---3------3---3-----3-----|
|-3-----3--3-----3-------3---3------3---3-----3-----|
|-3-----3--3-----3-------3---3------3---3-----3-----|	

 (Csus2)                                   (F5)
|--3------3-------3------3--3--3------3-------------|
|--3------3-------3------3--3--3------3-------------|
|--5------5-------5------5--5--5------5-------------|
|--5------5-------5------5--5--5------5------3------|
|--3------3-------3------3--3--3------3------3------|
|--------------------------------------------3------|	

 (E5)                                        (D5)
|---------------------------------------------------|
|-5-------5--5--5--5------5--5---5--5--5------------|
|-4-------4--4--4--4------4--4---4--4--4-------7----|
|-2-------2--2--2--2------2--2---2--2--2-------7----|
|-2-------2--2--2--2------2--2---2--2--2-------5----|
|-2-------2--2--2--2------2--2---2--2--2-------0----|	

                                        (D7sus4)
|---------------------------------------------------|
|---------------------------------------------------|
|-7------7--------7---7---7---7------7---5---5---5--|
|-7------7--------7---7---7---7------7---5---5---5--|
|-5------5--------5---5---5---5------5---5---5---5--|
|-0------0--------0---0---0---0------0---0---0---0--|	

 (F5)
|---------------------------------------------------|
|---------------------------------------------------|
|--7------------------------------------------------|
|--7----------------5vvvvvvvvvvvvvvvvvvv------------|
|--5------------------------------------------------|
|--0------------------------------------------------|	


Lyrics:

Verse (1)
Well, I just heard the news today
It seems my life is gonna change
I closed my eyes, begin to pray,
Then tears of joy stream down my face.
With arms wide open, under the sunlight
Welcome to this place, I'll show you everything
With arms wide open
with arms wide open

Verse (2)
Well, I don't know if I'm ready 
To be the man I have to be.
I'll take a breath, I'll take her by my side
We stand in awe, we've created life
With arms wide open, under the sunlight
Welcome to this place, I'll show you everything
With arms wide open
now everything has changed
I'll show you love I'll show you everything
With arms wide open
With arms wide open
I'll show you everything. Oh yeah
With arms wide open
Wide open
If I had just one wish
only one demand I hope he's not like me
I hope he understands that he can take this life
And hold it by the hand, and he can greet the world
with arms wide open
With arms wide open
Now everything has changed
I'll show you love, I'll show you everything
With arms wide open
With arms wide open
I'll show you everything
With arms wide open
Related for Arms Wide Open tab