Song name
# A B C D E F G H I J K L M N O P Q R S T U V W X Y Z

Creed - Overcome tab

Creed
Overcome
Tuning: B,F#,B,E,G#,C#
Note: This song was recorded and played in a very low tuning (dropped B), but dont feel 
need to tune your guitar
way down just to play this song, it cant be played in dropped d tuning if you want.

b = bend note

Intro

C#|-----------------------------------------------|
G#|-----------------------------------------------|
 E|-----------------------------------------------|
 B|-----------------------------------------------|
F#|---------3------------3-1b2----------3---------|
 B|-3-5---5---5--5-3-5-----------3-5--5---5-3b4/5-|
                                            ^- Pinch Harmonic, bend using whammy bar if capable


Verse

C#|-----------------------------------------|
G#|-8-------6-----------8-------6-----------|
 E|-----0-------0---0-------0-------0-------|
 B|-------------------------------------0---|
F#|---------------------------------------0-|
 B|-5-5---5-5-5---5-5-5-5-5---5-5-5---5-----|

 ------------------------------------------|
 -8-------6------------------------3-------|
 -----0----------------3-----3-2-------0---|
 --------------0---0-----0-----------------|
 ------------------------------------------|
 -8-8---8-8--8---8-8-0-3---3-3-3-3---3---0-|

_________________________________________________________________________________
Pre-Chorus (sounds like theres 2 guitar parts but this is my best attempt at 1..)


C#|---------------------5--5566-6665555-|
G#|-8-------8--------------8888-8888866-|
 E|-----0-------0---0------7777-7777777-|
 B|------------------------5555-5555555-|
F#|------------------------5555-5555555-|
 B|-5-5---5-5-5---5-5-5-5--5555-5555555-|
                           ^- start strumming here
I cant tab this 100% perfectly, you just gotta feel it.

________________________________________________________
Chorus - figure out your own strumming pattern, doesnt really make a difference

C#|-------------------------------------------------------|
G#|-------------------------------------------------------|
 E|-(3)--(7)--(5)--(7)-(5)-(3)--(7)--(5)--(7)-(5)-(3)-0-0-|
 B|--1----5----3----5---3---1----5----3----5---3---1--0-0-|
F#|--1----5----3----5---3---1----5----3----5---3---1--0-0-|
 B|--1----5----3----5---3---1----5----3----5---3---1--0-0-|
                                                      ^- Palm Mute
sorry no solo at this time.
Tap to rate this tab
# A B C D E F G H I J K L M N O P Q R S T U V W X Y Z