Song name
# A B C D E F G H I J K L M N O P Q R S T U V W X Y Z

Creed - Rain tab

Song           : Rain
Album          : Full Circle
Band           : Creed
Transcribed By : Brandon Llapitan	
Facebook       : bp_llapitan@yahoo.com
Tuning         : Open-B
Inflections    : / = Slide
                 x = Dead String/Muted Note
                 ~ = Let Ring/Vibrato
                 p = Pull-Off                  
                 h = Hammer-On      




Note : Listen to the song for the strumming. Iím pretty sure that 
       Open-B Tuning Is the correct tuning to play this song.
       This song is the 2nd single of creed from their new album.
       If you have questions, feel free to email me or just send a
       message on my facebook.



Intro : (Acoustic/Clean)

B----5-5544---4-000-00---0-00----0-0--0---0---0-0--0-5555444-|
B--000-0000-000-000-00-000-00-0000-0000-000-000-0000-0000000-|
F#-000-0000-000-005-550007/99-0004-4005-000-004-4005-0000000-|
B--000-0000-000-00x-xx000x-xx-000x-x00x-000-00x-x00x-0000000-|
F#-000-0000-000-005-550007/99-0004-4005-000-004-4005-0000000-|	
B--000-0000-000-000-00000-----000---000-000-00---000-0000000-|


Verse : (Acoustic/Clean)

B----5-5544---4-000-00---0-00----0-0--0---0---0-0--0-5555444-|
B--000-0000-000-000-00-000-00-0000-0000-000-000-0000-0000000-|
F#-000-0000-000-005-550007/99-0004-4005-000-004-4005-0000000-|
B--000-0000-000-00x-xx000x-xx-000x-x00x-000-00x-x00x-0000000-|
F#-000-0000-000-005-550007/99-0004-4005-000-004-4005-0000000-|	
B--000-0000-000-000-00000-----000---000-000-00---000-0000000-|

B----5-5544---4-000-00---0-00----0-0--0---0---0-0--0-0000-|
B--000-0000-000-000-00-000-00-0000-0000-000-000-0000-0000-|
F#-000-0000-000-005-550007/99-0004-4005-000-004-4005-5555-|
B--000-0000-000-00x-xx000x-xx-000x-x00x-000-00x-x00x-xxxx-|
F#-000-0000-000-005-550007/99-0004-4005-000-004-4005-5555-|	
B--000-0000-000-000-00000-----000---000-000-00---000------|

B--000-0000000--000-0000000-|-000-0000000-000-0000000-000-00-000---------|
B--000-0000000--000-0000000-|-000-0000000-000-0000000-000-00-000---------|
F#-005-5555555--000-0000000-|-005-5555555-005-5555555-555-55-555-(Pause)-|
B--00x-xxxxxxx--007-7777777-|-00x-xxxxxxx-005-5555555-555-55-555---------|
F#-005-5555555--004-4444444-|-005-5555555-00x-xxxxxxx-xxx-xx-xxx---------|
B--00-----------00----------|-------------005-5555555-555-55-555---------|


1st Chorus : (With Overdrive)

B--0-----------|-------------|-------------|-------------|
B--0-0-0000----|-0-0-0000----|-0-0-0000----|-0-0-0000----|
F#-0-0-0000-00-|-0-0-0000-00-|-0-0-0000-00-|-0-0-0000-00-|
B--7-7-7777-00-|-7-7-7777-00-|-5-5-5555-00-|-4-4-4444-00-|
F#-5-5-5555-00-|-4-4-4444-00-|-5-5-5555-00-|-5-5-5555-00-|
B-----------00-|----------00-|-5-5------00-|-4-4-4444-00-|

B--0-----------|-------------|-------------|----|
B--0-0-0000----|-0-0-0000----|-0-0-0000----|-0~-|
F#-0-0-0000-00-|-0-0-0000-00-|-0-0-0000-00-|-0~-|
B--7-7-7777-00-|-7-7-7777-00-|-5-5-5555-00-|-4~-|
F#-5-5-5555-00-|-4-4-4444-00-|-5-5-5555-00-|-5~-|
B-----------00-|----------00-|-5-5------00-|-4~-|

Repeat Intro
Repeat Verse


2nd Chorus : (With Overdrive)

B--0-----------|-------------|-------------|-------------|
B--0-0-0000----|-0-0-0000----|-0-0-0000----|-0-0-0000----|
F#-0-0-0000-00-|-0-0-0000-00-|-0-0-0000-00-|-0-0-0000-00-|
B--7-7-7777-00-|-7-7-7777-00-|-5-5-5555-00-|-4-4-4444-00-|
F#-5-5-5555-00-|-4-4-4444-00-|-5-5-5555-00-|-5-5-5555-00-|
B-----------00-|----------00-|-5-5------00-|-4-4-4444-00-|

B--0-----------|-------------|-------------|-------------|-------------|-----------------|
B--0-0-0000----|-0-0-0000----|-0-0-0000----|-0-0-0000----|-0-0-0000----|-----------------|
F#-0-0-0000-00-|-0-0-0000-00-|-0-0-0000-00-|-0-0-0000-00-|-0-0-0000-00-|-----------------|
B--7-7-7777-00-|-7-7-7777-00-|-5-5-5555-00-|-4-4-4444-00-|-5-5-5555-00-|-7-7-7-7-7-7-7-7-|
F#-5-5-5555-00-|-4-4-4444-00-|-5-5-5555-00-|-5-5-5555-00-|-5-5-5555-00-|-7-7-7-7-7-7-7-7-|
B-----------00-|----------00-|-5-5------00-|-4-4-4444-00-|-5-5-5555-00-|-7-7-7-7-7-7-7-7-|


Bridge : (With Overdrive)

B--0-----------|-0-----------|-0-----------|-0-----------|
B--0-0-0000----|-0-0-0000----|-0-0-0000----|-0-0-0000----|
F#-0-0-0000-00-|-0-0-0000-00-|-0-0-0000-00-|-0-0-0000-00-|
B--9-9-9999-00-|-5-5-5555-00-|-7-7-7777-00-|-7-7-7777-00-|
F#-9-9-9999-00-|-5-5-5555-00-|-5-5-5555-00-|-4-4-4444-00-|
B--9-9-9999-00-|-5-5-5555-00-|----------00-|----------00-|

B--0-----------|-0-----------|-0-----------|-0----------------------|
B--0-0-0000----|-0-0-0000----|-0-0-0000----|-0-0-0000-00-00-000-000-|
F#-0-0-0000-00-|-0-0-0000-00-|-0-0-0000-00-|-0-0-0000-00-00-000-000-|
B--9-9-9999-00-|-5-5-5555-00-|-7-7-7777-00-|-7-7-7777-77-77-777-777-|
F#-9-9-9999-00-|-5-5-5555-00-|-5-5-5555-00-|-7-7-7777-77-77-777-777-|
B--9-9-9999-00-|-5-5-5555-00-|----------00-|-7-7-7777-77-77-777-777-|


Last Chorus : (With Overdrive)

B--0-----------|-------------|-------------|-------------|
B--0-0-0000----|-0-0-0000----|-0-0-0000----|-0-0-0000----|
F#-0-0-0000-00-|-0-0-0000-00-|-0-0-0000-00-|-0-0-0000-00-|(2x)
B--7-7-7777-00-|-7-7-7777-00-|-5-5-5555-00-|-4-4-4444-00-|
F#-5-5-5555-00-|-4-4-4444-00-|-5-5-5555-00-|-5-5-5555-00-|
B-----------00-|----------00-|-5-5------00-|-4-4-4444-00-|


Solo : (With Overdrive & Wah)

Play the 1st Chorus for the rhythm part!
B----------------------------------------------------------------|
B---------------12~----------------------------------------------|
F#-----12-14-16------16-14-12----14~--14-12----------------------|
B--/12------------------------12------------14-12-11~-11/9-99999-|
F#---------------------------------------------------------------|
B----------------------------------------------------------------|

B-----------------------------------------------------------|
B---------19------------------------------------------------|
F#-----------16-17~--16-14-12----14~--14-12-----------12----|
B------19---------------------12------------14-12-11~-11h12-|
F#-/17------------------------------------------------------|
B-----------------------------------------------------------|

B---------------------------------------------------------------------|
B-----------11-12~--12-11----11-12~--12-11----11-12~--12-11----11-12~-|
F#----12-14---------------12---------------12---------------12--------|
B-/12-----------------------------------------------------------------|
F#--------------------------------------------------------------------|
B---------------------------------------------------------------------|

B--------------------------------------------------------------------------|
B--12-11----11-12p11-12p11-12p11-12p11p9-12p11p9---------------------------|
F#-------12--------------------------------------12p10p9--12-10-9~--9-5-7~-|
B--------------------------------------------------------------------------|
F#-------------------------------------------------------------------------|
B--------------------------------------------------------------------------|

Creed & Alter Bridge Forever!=) Rock On!!!
Tap to rate this tab
# A B C D E F G H I J K L M N O P Q R S T U V W X Y Z