Song name
# A B C D E F G H I J K L M N O P Q R S T U V W X Y Z

Creed - Time tab

Time - Creed

Tabbed by Tom

Standard Tuning

This isn't the all the pickings that Tremonti does I don't think.  I managed to pick up 
high melody and the sort of bass line he picks at the same time.

The intro probably changes a little when it becomes the verse but it will be subtle 
from the intro so if it sounds wrong when you're half way through a verse, try the immediate 
next to the one you're on instead.

E|------7-----5----7----------------------------|
B|5--8----8-----8----8---5---8-8-------8-7------|
G|------------------------------------------7-4-|
D|----------------------------------------------|
A|7-7-7-7-7-7-5-5-5-5-5-5-------------------5-5-|
E|-----------------------8-8-8-8-8-8-8-8-8-8----|

E|-------7-----5---------10----------------------------|
B|5--8-----8-----8---7-------8-----7-7-5----5-0--------| 
                        
                    
Tap to rate this tab
 
# A B C D E F G H I J K L M N O P Q R S T U V W X Y Z