Song name
# A B C D E F G H I J K L M N O P Q R S T U V W X Y Z

Creed - Time tab

Creed: Time

Transcribed by: mysticguitar77 (disturbedfreak0520@yahoo.com)

YouTube Account: MysticGuitar77

Tuning: (B,E,B,E,G,B) - very weird, but that's the tuning

Tab key:
h = hammer-on
p = pull-off
ph= pinched harmonic
* = palm-mute
b = half bend (unless otherwise noted)
/ = slide up
\ = slide down
+ = natural harmonic

Riff 1 - 12-string fingerpicked
B|----------0--------10---------0----------|
G|------0-------0----------0----------0----|
E|-12--------------------------------------|
B|-----------------------------------------|
E|-0--0---0-0-0---0--10-10---10-10-10---10-|
B|-----------------------------------------|

B|-----8---8--------8---7-------0---|
G|-9------------------------7-------|
E|-------------0--------------------|
B|----------------------------------|
E|-8-8---8-8-8---8--8-8---8-8-8---8-|
B|----------------------------------|

B|----------0--------10---------------0----|
G|------0-------0----------0----11---------|
E|-12--------------------------------------|
B|-----------------------------------------|
E|-0--0---0-0-0---0--10-10---10-10-10---10-|
B|-----------------------------------------|

B|---------7---7--------------------|
G|-7---0------------9-------9-------|
E|----------------------0-------0---|
B|----------------------------------|
E|-8-8---8-8-8---8--8-8---8-8-8---8-|
B|----------------------------------|

Riff 2  "I can't explain, can't quite put my finger on..."
B|----------0--------10---------0----------|
G|------0-------0----------0----------0----|
E|-12--------------------------------------|
B|-----------------------------------------|
E|-0--0---0-0-0---0--10-10---10-10-10---10-|
B|-----------------------------------------|

B|-----8---8--------8---7-------0---|
G|-9------------------------7-------|
E|-------------0--------------------|
B|----------------------------------|
E|-8-8---8-8-8---8--8-8---8-8-8---8-|
B|----------------------------------|

B|----------0--------10---------------0----|
G|------0-------0----------0----11---------|
E|-12--------------------------------------|
B|-----------------------------------------|
E|-0--0---0-0-0---0--10-10---10-10-10---10-|
B|-----------------------------------------|

B|---------7---7------------7-------|
G|-7---0------------0-----------9---|
E|----------------------0-----------|
B|----------------------------------|
E|-8-8---8-8-8---8--8-8---8-8-8---8-|
B|----------------------------------|

Riff 3  "This time, I have nothing left to lose..."
B|----0-0-0-0-0--0-0-0-0----0-0-0-0-0--0-0-0-0-|
G|-4--4-4-4-4-4--4-4-4-4-4--4-4-4-4-4--4-4-4-4-|
E|-3--3-3-3-3-3--3-3-3-3-3--3-3-3-3-3--3-3-3-3-|
B|-x--x-x-x-x-x--x-x-x-x-x--x-x-x-x-x--x-x-x-x-|
E|-3--3-3-3-3-3--3-3-3-3-3--3-3-3-3-3--3-3-3-3-|
B|---------------------------------------------|

B|----0-0-0-0-0--0-0-0-0----0-0-0-0-0--0-0-0-0-|
G|-2--2-2-2-2-2--2-2-2-2-2--2-2-2-2-4--4-4-4-4-|
E|-3--3-3-3-3-3--3-3-3-3-3--3-3-3-3-3--3-3-3-3-|
B|-0--0-0-0-0-0--0-0-0-0-0--0-0-0-0-0--0-0-0-0-|
E|-0--0-0-0-0-0--0-0-0-0-0--0-0-0-0-0--0-0-0-0-|
B|---------------------------------------------|

B|----0-0-0-0-0--0-0-0-0-0--0-0-0-0-0--0-0-0-0-|
G|----4-4-4-4-4--4-4-4-4-4--4-4-4-4-4--4-4-4-4-|
E|-0--0-0-0-0-0--0-0-0-0-0--0-0-0-0-0--0-0-0-0-|
B|-x--x-x-x-x-x--x-x-x-x-x--x-x-x-x-x--x-x-x-x-|
E|-5--5-5-5-5-5--5-5-5-5-5--5-5-5-5-5--5-5-5-5-|
B|-3--3-3-3-3-3--3-3-3-3-3--3-3-3-3-3--3-3-3-3-|

B|-0--0-0-0-0-0--0-0-0-0-0--0-0-0-0-0--0-0-0-0-|
G|-9--9-9-9-9-9--9-9-9-9-9--9-9-9-9-9--9-9-9-9-|
E|-0--0-0-0-0-0--0-0-0-0-0--0-0-0-0-0--0-0-0-0-|
B|-x--x-x-x-x-x--x-x-x-x-x--x-x-x-x-x--x-x-x-x-|
E|-8--8-8-8-8-8--8-8-8-8-8--8-8-8-8-8--8-8-8-8-|
B|---------------------------------------------|

Repeat end on:
B|-0----|
G|-9----|
E|-0----|
B|-x----|
E|-8----|
B|------|

Play Riff 1
Play Riff 2   "You cover yourself, you cover your skin..."
Play Riff 3   "This time, I have nothing left to lose..."

Riff 4
B|---------0----------------0-------|
G|-----0-------0----2---0-------0---|
E|-0--------------------------------|
B|----------------------------------|
E|-3-3---3-3-3---3--2-2---2-2-2---2-|
B|----------------------------------|

B|----------------------12+-------7+--------|
G|-----------12+-----------------------7+---|
E|-12+---0---------0----------0-------------|
B|------------------------------------------|
E|-0---0---0-0---0---0--0---0---0-0--0----0-|
B|------------------------------------------|

B|-10---------0--------------------0---------|
G|-------0----------0-----9---0--------------|
E|-------------------------------------0-----|
B|-------------------------------------------|
E|-10-10---10-10-10---10--8-8---8--8-8---3\2-|
B|-------------------------------------------|

B|-5---7---8---5----5+------------------|
G|-----------------------5+---7+--------|
E|---------------------------------7+---|
B|--------------------------------------|
E|-0-0---0-0-0---0--0--0----0-0--0----0-|
B|--------------------------------------|

Repeat first measure of Riff 4

B|----------------------12+-------7+--------|
G|-----------12+-----------------------5+---|
E|-12+---0---------0----------0-------------|
B|------------------------------------------|
E|-0---0---0-0---0---0--0---0---0-0--0----0-|
B|------------------------------------------|

B|-10---------0-------------------0---------|
G|-------0----------0-----9---0-------------|
E|------------------------------------0-----|
B|------------------------------------------|
E|-10-10---10-10-10---10--8-8---8-8-8---3\2-|
B|------------------------------------------|

B|-5---7---10\---8---5+------------------|
G|------------------------5+---7+--------|
E|----------------------------------5+---|
B|---------------------------------------|
E|-0-0---0-0---0---0-0--0----0-0--0----0-|
B|---------------------------------------|

Repeat entire Riff 4 minus final measure above

B|-5---7---8---5----5---7---8---7---|
G|----------------------------------|
E|----------------------------------|
B|----------------------------------|
E|-0-0---0-0-0---0--0-0---0-0-0---0-|
B|----------------------------------|

Riff 5
B|-----------------------0--0-0-0-0-0--0-0-0-0-|
G|-4--4-4-4-4-4--4-4-4-4-0--0-0-0-0-0--0-0-0-0-|
E|-3--3-3-3-3-3--3-3-3-3-2--2-2-2-2-2--2-2-2-2-|
B|-x--x-x-x-x-x--x-x-x-x-x--x-x-x-x-x--x-x-x-x-|
E|-3--3-3-3-3-3--3-3-3-3-2--2-2-2-2-2--2-2-2-2-|
B|---------------------------------------------|

B|-0--0-0-0-0-0--0-0-0-0-0--0-0-0-0-0-0-0-0--0--0--|
G|-0--0-0-0-0-0--0-0-0-0-0--0-0-0-0-0-0-0-0--0--0--|
E|-0--0-0-0-0-2--2-2-2-2-3--3-3-3-3-2-2-2-10-10-10-|
B|-0--0-0-0-0-x--x-x-x-x-x--x-x-x-x-x-x-x-x--x--x--|
E|-0--0-0-0-0-2--2-2-2-2-3--3-3-3-3-2-2-2-10-10-10-|
B|-------------------------------------------------|

B|---------------------------------------------|
G|---------------------------------------------|
E|---------------------------------------------|
B|---------------------------------------------|
E|-5--5-5-5-5-5--5-5-5-4-3--3-3-3-3-3--3-3-3-3-|
B|-3--3-3-3-3-3--3-3-3-2-1--1-1-1-1-1--1-1-1-1-|

B|------------------------0--0-0-0-0-0-0-0-0-0-0-|
G|------------------------0--0-0-0-0-0-0-0-0-0-0-|
E|-0-0-0-2-3-2-0--0-0-0-0-5--5-5-5-5-5/7-7-7-7-7-|
B|-0-0-0-0-0-0-0--0-0-0-0-x--x-x-x-x-x-x-x-x-x-x-|
E|-0-0-0-0-0-0-0--0-0-0-0-5--5-5-5-5-5/7-7-7-7-7-|
B|-----------------------------------------------|

Repeat entire Riff 5

Play Riff 3   "This time, I have nothing left to lose..."
Play Riff 5
Play Riff 4 until end

Difficult song to tab, I hope you can follow it easily enough. Enjoy!




Tap to rate this tab
# A B C D E F G H I J K L M N O P Q R S T U V W X Y Z