Song name
# A B C D E F G H I J K L M N O P Q R S T U V W X Y Z

Creed - A Thousand Faces tab

Creed - A Thousand Faces
From the "Full Circle" Album
Tabbed by jjhand, with some use of tab by brandon(KETE)
Tuning - Drop B (B F# B E G# C#)

I fixed the line lengths, so hopefully this will be acceptable.
The solo is included below, and its a tough one. I can hear the
notes but its hard to play well, so good luck! Please rate/comment.

Intro (Acoustic), Chords Shown 
    B add2          D/B            D/G            
C#|-------0------0------0--------|-----------5~-|
G#|-----3----3--------6---6------|-------5h6-6~-|
 E|---2-------------5-------5----|-----5--------|
 B|-0----------0--------------0--|---7----------|
F#|------------------------------|--------------|
 B|------------------------------|-8------------|

|-------0------0-------0--------|--------------|
|-----3----3---------6---6------|-------5h6----|
|---2--------------5-------5----|-----5-----5~-| notes on low B string 
|-0----------0---0-----------0--|---7----------| played easier with pinky
|-------------------------------|--------------|
|-------------------------------|-8------------|
 

Verse : 
Play Intro 2x

Lyrics:
"I stand surrounded by the walls that once confined me.
 Knowing I'll be underneath them when they crumble, when they fall
 With clarity my scars remind me
 Ask yourself what's just under my skin"


 
 
Pre-Chorus (strumming varies):
 
  D/F#              D/G               D/F#              D(maj7)
|-0~----0------0-0-|-0~---0------0-0-|-0~---0------0-0-|-0~------|
|-6~------6----6-6-|-6~-----6----6-6-|-6~-----6----6-6-|-6~------|
|-5~--------5--5-5-|-5~-------5--5-5-|-5~-------5--5-5-|-5~------|
|-7~-----------7-7-|-7~----------7-7-|-7~----------7-7-|-7~------|
|-0------------0-0-|-x-----------x-x-|-0-----------0-0-|---------|
|------------------|-8~----------8-8-|-----------------|---------|
"A different smile again, So much I hide. How is stepping back a 
                                                      move forward?"
 

Chorus (Heavy Dist Electric): 
    G5               D/F#              D2               D2/C#
C#|----------------|-----------------|----------------|----------------|
G#|----------------|-----------------|----------------|----------------|
 E|----------------|-22--2--222-22---|----------------|----------------|
 B|-3---3---333-33-|-33--3--333-33-x-|-5--5--555-55-x-|-5--5--555-55-x-|
F#|-1---1---111-11-|-00--0--000-00-x-|-3--3--333-33-x-|-3--3--333-33-x-|
 B|----------------|---------------x-|-3--3--333-33-x-|-2--2--222-22-x-|

"Now I'm forced to look behind I'm forced to look at you 
You wear a thousand faces Tell me, tell me which is you"


  |---------------|-----------------|------------------|--------|
  |---------------|-----------------|------------------|--------|
  |-3---3---333-3-|-22--2--222-22---|------------------|--------|
  |-3---3---333-3-|-33--3--333-33-x-|-5---5---555-55-x-|-5~-----|
  |-1---1---111-1-|-00--0--000-00-x-|-3---3---333-33-x-|-3~-----|
  |---------------|---------------x-|-3---3---333-33-x-|-2~-----|
 
"Smoke and mirrors paint the floor, But still reflect the truth
You wear a thousand faces, Tell me, tell me which is you"




Repeat Intro & Verse
Repeat Pre-Chorus
Repeat Chorus
 



Bridge Part 1: 
Guitar 1 (turn distortion on at end of line)
|-13~--------------------|12-------15-|-13--------|12------------|
|------------------------|------------|-----------|--------------|
|------------------------|--14~-------|---14~-----|--14~---------|
|------------------------|------------|-----------|--------------|
|------------------------|------------|-----------|---------0000-|
|------------------------|------------|-----------|---------0000-|
|                                       
|Guitar 2  (repeated)                
|---------------------------------||
|---------------------------------||
|---------------------------------||
|---0---0---0---0---0---0---0---0-||
|---------------------------------||
|-0---0---0---0---0---0---0---0---||
 



Bridge Part 2 (repeated 3x, One Guitar):
|--------------------------------|--------------------|
|--------------------------------|--------------------|
|--14---14---14--1212-12--11/12-|-11---11---11\------|
|---x---x----x---x--x--x---x--x--|-x----x----x------7-|
|--12---12---12--10-10-10--9/-10-|-9----9----9\-----7-|
|--0----0----0---------0---------|-0----0-----------7-|
"I Bleed Inside"
        
|-------------------------|----------------------------|
|-------------------------|----------------------------|
|-------------------------|-2-------0--0---------------|
|-10--10--10-1010-1010----|-3-------2--2---------------|
|-8---8---8--8-8--8-8---x-|-----x-x--------x-x---------|
|-8---8---8--8-8--8-8---x-|-3---x-x-2--2---x-x-1b3r1-0-| 
"Just let it out"           "Just let it out"
 
last note (low B) on bridge wraps around into next bar



Play 'Bridge Part 1' again
 



Repeat Chorus
 



Solo (Chorus plays behind Solo on Rhythm Guitar):
|-----------------|------------------------|
|-----------------|------------------------|
|-----------------|-------------9~--10--10-|
|-8-------8\7--10-|-(10~)--12~-------------|
|-----------------|------------------------|
|-----------------|------------------------|
 
|------------------------------------|
|-13----13---------------------------|
|-12b14---b14r12p10-/14-10h12\---/12-|
|------------------------------------|
|------------------------------------|
|------------------------------------|

|-12--13--12-13-12h13p12p10-12--10--------------------|
|---13--13--------------------13--10h13p11p10-13~-/13-|
|-----------------------------------------------------|
|-----------------------------------------------------|
|-----------------------------------------------------|
|-----------------------------------------------------|
 
|-15--17--18--15--13--15--17--18--13--15--17--15---|
|---13--13--13--13--13--13--13--13--13--13--13--13-|
|--------------------------------------------------|
|--------------------------------------------------|
|--------------------------------------------------|
|--------------------------------------------------|

|-17--13---15---17--13---15---17--13---15-13-13h15p13-12-13-12---|
|---13--/17--13---13--/17--13---13--/17-----------------------13-|
|----------------------------------------------------------------|
|----------------------------------------------------------------|
|----------------------------------------------------------------|
|----------------------------------------------------------------|


|-15b17r15--13-15-12h13p12-10h12p10-12h13p12------------------
|-------------------------------------------11p10-11h13p11p10-
|-------------------------------------------------------------
|-------------------------------------------------------------
|-------------------------------------------------------------
|-------------------------------------------------------------

continued                  
-------------------|-----------------------------------|
----------10-------|-----------------------------------|
12p10p9h10--12p10p-|-9h10p9----------------------------|
-------------------|-------12p10p8p7h8p7---------------|
-------------------|-------------------------------7-5-|
-------------------|---------------------7PH~~---9-----|

Rhythm: G5          F#5
     |-----------|----------|
     |-----------|----------|
     |-----------|----------|
     |-----------|----------|
     |-----------|----------|
Lead:|-8~~~---10-|-7~~~~----|



Play intro again to end song.




Key:
| /  slide up
| \  slide down
| h  hammer-on
| p  pull-off
| ~  vibrato
| x  Mute note
| PH pinch harmonic
| b  bend note
| r  release bend
Tap to rate this tab
 
# A B C D E F G H I J K L M N O P Q R S T U V W X Y Z