Song name
# A B C D E F G H I J K L M N O P Q R S T U V W X Y Z

Creed - Silent Teacher tab

Creed - Silent Teacher

Intro:

D#|--3p2---------------2---------3p2--3p2---0---0h2----------2--------3p2-|
A#|--3-----------------3---------3----3-----3---3------------3--------3---|
F#|-----------------------------------------------------------------------|
C#|--0-----0----0---0--0----0----0----0-----0---0-----0---0--------0--0---|
G#|-----------------------------------------------------------------------|
C#|-----------------------------------------------------------------------|

D#|--3p2---------------2---------3p2--3p2---0---0h2----------2p0----------|
A#|--3-----------------3---------3----3-----3---3------------3------------|
F#|-----------------------------------------------------------------------|
C#|--0-----0----0---0--0----0----0----0-----0---0-----0---0--------0------|
G#|-----------------------------------------------------------------------|
C#|-----------------------------------------------------------------------|

D#|------------------------------------------------|
A#|----------3---------------3---------------------|
F#|-------0---------------0------------------------|
C#|------------------------------------------------|
G#|--3---------------2-----------------------------|
C#|----------------------------------2b---0--------|


Verse:

D#|--3p2---------------2---------3p2--3p2---0---0h2----------2--------3p2-|
A#|--3-----------------3---------3----3-----3---3------------3--------3---|
F#|-----------------------------------------------------------------------|
C#|--0-----0----0---0--0----0----0----0-----0---0-----0---0--------0--0---|
G#|-----------------------------------------------------------------------|
C#|-----------------------------------------------------------------------|

D#|--3p2---------------2---------3p2--3p2---0---0h2----------2p0----------|
A#|--3-----------------3---------3----3-----3---3------------3------------|
F#|-----------------------------------------------------------------------|
C#|--0-----0----0---0--0----0----0----0-----0---0-----0---0--------0------|
G#|-----------------------------------------------------------------------|
C#|-----------------------------------------------------------------------|

D#|------------------------------------------------|
A#|----------3---------------3---------------------|
F#|-------0---------------0------------------------|
C#|------------------------------------------------|
G#|--3---------------2-----------------------------|
C#|----------------------------------2b---0--------|

D#|--3p2---------------2---------3p2--3p2---0---0h2----------2--------3p2-|
A#|--3-----------------3---------3----3-----3---3------------3--------3---|
F#|-----------------------------------------------------------------------|
C#|--0-----0----0---0--0----0----0----0-----0---0-----0---0--------0--0---|
G#|-----------------------------------------------------------------------|
C#|-----------------------------------------------------------------------|

D#|--3p2---------------2---------3p2--3p2---0---0h2----------2p0----------|
A#|--3-----------------3---------3----3-----3---3------------3------------|
F#|-----------------------------------------------------------------------|
C#|--0-----0----0---0--0----0----0----0-----0---0-----0---0--------0------|
G#|-----------------------------------------------------------------------|
C#|-----------------------------------------------------------------------|

D#|------------------------------------------------|
A#|----------3---------------3---------------------|
F#|-------0---------------0------------------------|
C#|------------------------------------------------|
G#|--3---------------2-----------------------------|
C#|----------------------------------2b---0--------|

D#|------------------------------------------------|
A#|----------3---------------3---------------------|
F#|-------0---------------0------------------------|
C#|------------------------------------------------|
G#|--3---------------2-----------------------------|
C#|----------------------------------2b---0--------|

Refrao: TA DIFÍCIL DE TIRAR DE OUVIDO! MAS EU MANDO QNDO PUDER!!!
Tap to rate this tab
# A B C D E F G H I J K L M N O P Q R S T U V W X Y Z