Song name
# A B C D E F G H I J K L M N O P Q R S T U V W X Y Z

Creed - My Sacrifice tab

banda: Creed
album: weathered
kanta: my sacfifice
dropped D: usually na ginagamit nila

intro/verses:
-----------------------------------|
-----------------------------------|
-545555-5545554--2-22--------------|
-----------------------5-55--------|

chorus:
-----------------------------------|
-----------------------------------|
-5-555-----------------------------|
--------7-777--9-999--5-55---------|

bride: ulitin hanggang kinakailangan
-----------------------------------|
-----------------------------------|
-5555555555555555------------------|
-0000000000000000------------------|

hnd ako sure sa tab na 2.. pero tinutugtog k na 2 for 3 yrs..
ok rn man... yun nga lang maraming kulang. lalo na sa chorus, ung sa G part
Tap to rate this tab
 
# A B C D E F G H I J K L M N O P Q R S T U V W X Y Z