Song name
# A B C D E F G H I J K L M N O P Q R S T U V W X Y Z

Creed - Rain tab

Artist: Creed
Song  : Rain

I watched videos of Creed playing this song and I think this is very close
to how they play it. If you find anything wrong and know the right way to
fix it please let me know and I will fix it. This sounds good with the album
version and the acoustic version on youtube.
Please rate/ comment!

TUNING: Open B: B/F#/B/F#/B/B

Intro:
 B|-00-00-0-0--0-00-00-00-00-00----------------------------|
 B|-55-44-0-0--2/40-00-00-00-00----------------------------|
F#|-00-00-0-0--2/44-44-55-44-55----------------------------|
 B|-00-00-1212-2/44-00-00-00-00----x1----------------------|
F#|-55-55-9-9--0-00-xx-xx-xx-xx----------------------------|
 B|-xx-xx-9-9--0-00-55-55-55-55----------------------------|

Verse:
 B|-00-00-0-0--00-0-00-00-00-00----------------------------|
 B|-55-44-0-0--2/40-00-00-00-00----------------------------|
F#|-00-00-0-0--2/44-44-55-44-55----------------------------|
 B|-00-00-1212-2/44-00-00-00-00----x2----------------------|
F#|-55-55-9-9--0-00-xx-xx-xx-xx----------------------------|
 B|-xx-xx-9-9--0-00-55-55-55-55----------------------------|

Pre-chorus:
 B|--0-0--00-0-0--00-00------------------------------------|
 B|--0-0--00-0-0--00-00------------------------------------|
F#|--0-0--00-0-0--00-00------------------------------------|
 B|--1212-99-1212-99-75----x1------------------------------|
F#|--9-9--55-9-9--55-55------------------------------------|
 B|--9-9--55-9-9--55-55------------------------------------|

Chorus:
 B|--00-00-00-00-00-00-00-0~-------------------------------|
 B|--00-00-00-00-00-00-00-0~-------------------------------|
F#|--00-00-00-00-00-00-00-0~-------------------------------|
 B|--77-77-55-77-77-77-55-7~---x1--------------------------|
F#|--55-44-55-55-55-44-55-5~-------------------------------|
 B|--xx-xx-55-44-xx-xx-55-4~-------------------------------|

Repeat INTRO x1

Repeat VERSE x2

Repeat PRE-CHORUS x1

Chorus:
 B|--00-00-00-00-00-00-00-00-00-0-0-------------------------|
 B|--00-00-00-00-00-00-00-00-00-0-0-------------------------|
F#|--00-00-00-00-00-00-00-00-00-0-0-------------------------|
 B|--77-77-55-77-77-77-55-77-55-1111---x1-------------------|
F#|--55-44-55-55-55-44-55-55-55-7-7-------------------------|
 B|--xx-xx-55-44-xx-xx-55-44-55-7-7-------------------------|

Bridge/ Breakdown:
 B|--0-0--00-00-00-0-0--00-0-0--0-0--0-------------------------|
 B|--0-0--00-00-00-0-0--00-0-0--0-0--0-------------------------|
F#|--0-0--00-00-00-0-0--00-0-0--0-0--0-------------------------|
 B|--1212-55-77-77-1212-55-1212-1111-7----x1-------------------|
F#|--9-9--55-55-44-9-9--55-9-9--7-7--4-------------------------|
 B|--9-9--55-xx-xx-9-9--55-9-9--7-7--x-------------------------|

Last Chorus:
 B|--00-00-00-00-00-00-00-00-00-00-00-00-00-00-00-0~-------|
 B|--00-00-00-00-00-00-00-00-00-00-00-00-00-00-00-0~-------|
F#|--00-00-00-00-00-00-00-00-00-00-00-00-00-00-00-0~-------|
 B|--77-77-55-77-77-77-55-77-77-77-55-77-77-55-55-7~---x1--|
F#|--55-44-55-55-55-44-55-55-55-44-55-55-55-44-55-5~-------|
 B|--xx-xx-55-44-xx-xx-55-44-xx-xx-55-44-xx-xx-55-4~-------|


Please rate/ comment!
Tap to rate this tab
 
# A B C D E F G H I J K L M N O P Q R S T U V W X Y Z