Song name
# A B C D E F G H I J K L M N O P Q R S T U V W X Y Z

Creed - Suddenly tab

Title: Suddenly
Artist: Creed
Album: Full Circle
Music: TreMonti & Stapp
Tabber: J. Page
TeMpo = 90


Intro:
D#|----------------------------------------------------|
A#|----------------------------------------------------|
F#|----------------------------------------------------|
C#|----------------------------------------------------|
G#|----------------------------------------------------|
C#|--------------------------------------------0--0----|
					       PM--|

------------------------------------------------------|
------------------------------------------------------|
------------------------------------------------------|
------------------------------------------------------|
------------------------------------------------------|
--16-0--12-0--13-0--0--13-0--16-0--12-13-15-13-12-----|
  PM--------------------------------------------------|

------------------------------------------------------|
------------------------------------------------------|
------------------------------------------------------|
------------------------------------------------------|
------------------------------------------------------|
--16-0--12-0--13-0--0--13-0--16-0--12-13-15-13-12-----|
  PM--------------------------------------------------|

------------------------------------------------------|
------------------------------------------------------|
------------------------------------------------------|
------------------------------------------------------|
------------------------------------------------------|
--8--0--7--0--5--0--0--5--0--0--7--8--10-8--7--5------|
  PM--------------------------------------------------|

----------------------------------------------------|
----------------------------------------------------|
----------------------------------------------------|
----------------------------------------------------|
----------------------------------------------------|
--8--0--7--0--5~------------------------------------|
  PM-----|

----------------------------------------------------|
----------------------------------------------------|
--11----7-----8-----------8--11----7--8--7--7--7----|
----------------------------------------------------|
--9-----5-----6-----------6--9-----5--6--5--5--5----|
-----0-----0--------0--0--------0-------------------|


----------------------------------------------------|
----------------------------------------------------|
--11----7-----8-----------8--11----7--8--7--7--7----|
----------------------------------------------------|
--9-----5-----6-----------6--9-----5--6--5--5--5----|
-----0-----0--------0--0--------0-------------------|


----------------------------------------------------|
----------------------------------------------------|
----------------------------------------------------|
----------------------------------------------------|
----------------------------------------------------|
--8--0--7--0--5--0--0--5--0--0--7--8--10-8--7--5----|


----------------------------------------------------|
----------------------------------------------------|
----------------------------------------------------|
----------------------------------------------------|
----------------------------------------------------|
--8--0--7--0--5--0--0--5--0--0--7--8--7~------------|


Verse:
------------------------------------------------------|
------------------------------------------------------|
------------------------------------------------------|
------------------------------------------------------|
------------------------------------------------------|
--16-0--12-0--13-0--0--13-0--16-0--12-13-15-13-12-----|
  PM--------------------------------------------------|

------------------------------------------------------|
------------------------------------------------------|
------------------------------------------------------|
------------------------------------------------------|
------------------------------------------------------|
--16-0--12-0--13-0--0--13-0--16-0--12-13-15-13-12-----|
  PM--------------------------------------------------|

------------------------------------------------------|
------------------------------------------------------|
------------------------------------------------------|
------------------------------------------------------|
------------------------------------------------------|
--8--0--7--0--5--0--0--5--0--0--7--8--10-8--7--5------|
  PM--------------------------------------------------|

------------------------------------------------------|
------------------------------------------------------|
------------------------------------------------------|
------------------------------------------------------|
------------------------------------------------------|
--8--0--7--0--5--0--0--5--0--0--7--8--7~--------------|
  PM--------------------------------------------------|

------------------------------------------------------|
------------------------------------------------------|
------------------------------------------------------|
------------------------------------------------------|
------------------------------------------------------|
--16-0--12-0--13-0--0--13-0--16-0--12-13-15-13-12-----|
  PM--------------------------------------------------|

------------------------------------------------------|
------------------------------------------------------|
------------------------------------------------------|
------------------------------------------------------|
------------------------------------------------------|
--16-0--12-0--13-0--0--13-0--16-0--12-13-15-13-12-----|
  PM--------------------------------------------------|

------------------------------------------------------|
------------------------------------------------------|
------------------------------------------------------|
------------------------------------------------------|
------------------------------------------------------|
--8--0--7--0--5--0--0--5--0--0--7--8--10-8--7--5------|
  PM--------------------------------------------------|

------------------------------------------------------|
------------------------------------------------------|
------------------------------------------------------|
------------------------------------------------------|
------------------------------------------------------|
--8--0--7--0--5--5-----------0--7--8--7~--------------|
  PM--------------------------------------------------|

Chorus:
----------------------------------------------------|
----------------------------------------------------|
--10----------10----------10------------------------|
--10----------10----------10-10-10----10----10------|
--8-----------8-----------8--8--8-----8-----8-------|
--8-----------8-----------8--7--7-----7-----7-------|


----------------------------------------------------|
----------------------------------------------------|
----------------------------------------------------|
--5-----------5-----------5-----7--7--8-----8-------|
--5-----------5-----------5-----5--5--5-----5-------|
--5-----------5-----------5-----5--5--5-----5-------|


----------------------------------------------------|
----------------------------------------------------|
--3-----------3-----------3-----3--3--3-----3-------|
--1-----------1-----------1-----1--1--1-----1-------|
--1-----------1-----------1-----1--1--1-----1-------|
--1-----------1-----------1-----1--1--1-----1-------|


----------------------------------------------------|
----------------------------------------------------|
--2-----------2-----------2-----2--2--2-----2-------|
--0-----------0-----------0-----0--0--0-----0-------|
--0-----------0-----------0-----0--0--0-----0-------|
--0-----------0-----------0-----0--0--0-----0-------|


----------------------------------------------------|
----------------------------------------------------|
--10----------10----------10------------------------|
--10----------10----------10-10-10----10----10------|
--8-----------8-----------8--8--8-----8-----8-------|
--8-----------8-----------8--7--7-----7-----7-------|


----------------------------------------------------|
----------------------------------------------------|
----------------------------------------------------|
--5-----------5-----------5-----7--7--8-----8-------|
--5-----------5-----------5-----5--5--5-----5-------|
--5-----------5-----------5-----5--5--5-----5-------|


----------------------------------------------------|
----------------------------------------------------|
--3-----------3-----------3-----3--3--3-----3-------|
--1-----------1-----------1-----1--1--1-----1-------|
--1-----------1-----------1-----1--1--1-----1-------|
--1-----------1-----------1-----1--1--1-----1-------|


----------------------------------------------------|
----------------------------------------------------|
--2-----------2-----------2-----2--2--2-----2-------|
--0-----------0-----------0-----0--0--0-----0-------|
--0-----------0-----------0-----0--0--0-----0-------|
--0-----------0-----------0-----0--0--0-----0-------|


Interlude:
----------------------------------------------------|
----------------------------------------------------|
--11----7-----8-----------8--11----7--8--7--7--7----|
----------------------------------------------------|
--9-----5-----6-----------6--9-----5--6--5--5--5----|
-----0-----0--------0--0--------0-------------------|


----------------------------------------------------|
----------------------------------------------------|
--11----7-----8-----------8--11----7--8--7--7--7----|
----------------------------------------------------|
--9-----5-----6-----------6--9-----5--6--5--5--5----|
-----0-----0--------0--0--------0-------------------|


Verse:
------------------------------------------------------|
------------------------------------------------------|
------------------------------------------------------|
------------------------------------------------------|
------------------------------------------------------|
--16-0--12-0--13-0--0--13-0--16-0--12-13-15-13-12-----|
  PM--------------------------------------------------|

------------------------------------------------------|
------------------------------------------------------|
------------------------------------------------------|
------------------------------------------------------|
------------------------------------------------------|
--16-0--12-0--13-0--0--13-0--16-0--12-13-15-13-12-----|
  PM--------------------------------------------------|

------------------------------------------------------|
------------------------------------------------------|
------------------------------------------------------|
------------------------------------------------------|
------------------------------------------------------|
--8--0--7--0--5--0--0--5--0--0--7--8--10-8--7--5------|
  PM--------------------------------------------------|

------------------------------------------------------|
------------------------------------------------------|
------------------------------------------------------|
------------------------------------------------------|
------------------------------------------------------|
--8--0--7--0--5--0--0--5--0--0--7--8--7~--------------|
  PM--------------------------------------------------|

------------------------------------------------------|
------------------------------------------------------|
------------------------------------------------------|
------------------------------------------------------|
------------------------------------------------------|
--16-0--12-0--13-0--0--13-0--16-0--12-13-15-13-12-----|
  PM--------------------------------------------------|

------------------------------------------------------|
------------------------------------------------------|
------------------------------------------------------|
------------------------------------------------------|
------------------------------------------------------|
--16-0--12-0--13-0--0--13-0--16-0--12-13-15-13-12-----|
  PM--------------------------------------------------|

------------------------------------------------------|
------------------------------------------------------|
------------------------------------------------------|
------------------------------------------------------|
------------------------------------------------------|
--8--0--7--0--5--0--0--5--0--0--7--8--10-8--7--5------|
  PM--------------------------------------------------|

------------------------------------------------------|
------------------------------------------------------|
------------------------------------------------------|
------------------------------------------------------|
------------------------------------------------------|
--8--0--7--0--5--------------0--7--8--7~--------------|
  PM--------------------------------------------------|

Chorus:
----------------------------------------------------|
----------------------------------------------------|
--10----------10----------10------------------------|
--10----------10----------10-10-10----10----10------|
--8-----------8-----------8--8--8-----8-----8-------|
--8-----------8-----------8--7--7-----7-----7-------|


----------------------------------------------------|
----------------------------------------------------|
----------------------------------------------------|
--5-----------5-----------5-----7--7--8-----8-------|
--5-----------5-----------5-----5--5--5-----5-------|
--5-----------5-----------5-----5--5--5-----5-------|


----------------------------------------------------|
----------------------------------------------------|
--3-----------3-----------3-----3--3--3-----3-------|
--1-----------1-----------1-----1--1--1-----1-------|
--1-----------1-----------1-----1--1--1-----1-------|
--1-----------1-----------1-----1--1--1-----1-------|


----------------------------------------------------|
----------------------------------------------------|
--2-----------2-----------2-----2--2--2-----2-------|
--0-----------0-----------0-----0--0--0-----0-------|
--0-----------0-----------0-----0--0--0-----0-------|
--0-----------0-----------0-----0--0--0-----0-------|


----------------------------------------------------|
----------------------------------------------------|
--10----------10----------10------------------------|
--10----------10----------10-10-10----10----10------|
--8-----------8-----------8--8--8-----8-----8-------|
--8-----------8-----------8--7--7-----7-----7-------|


----------------------------------------------------|
----------------------------------------------------|
----------------------------------------------------|
--5-----------5-----------5-----7--7--8-----8-------|
--5-----------5-----------5-----5--5--5-----5-------|
--5-----------5-----------5-----5--5--5-----5-------|


----------------------------------------------------|
----------------------------------------------------|
--3-----------3-----------3-----3--3--3-----3-------|
--1-----------1-----------1-----1--1--1-----1-------|
--1-----------1-----------1-----1--1--1-----1-------|
--1-----------1-----------1-----1--1--1-----1-------|


----------------------------------------------------|
----------------------------------------------------|
--2-----------2-----------2-----2--2--2-----2-------|
--0-----------0-----------0-----0--0--0-----0-------|
--0-----------0-----------0-----0--0--0-----0-------|
--0-----------0-----------0-----0--0--0-----0-------|


Bridge:
-------------------------------------------------------------|
-------------------------------------------------------------|
-------------------------------------------------------------|
-------------------------------------------------------------|
-------------------------------------------------------------|
--10----0-----0-----10----0-----0-----10----0-----0-----10---|
        PM-----|          PM-----|          PM---------------|

----------------------------------------|
----------------------------------------|
----------------------------------------|
----------------------------------------|
----------------------------------------|
--0-----0-----3--3--3--3--0--0--0--0----|
  PM-----|

------------------------------------------------------------|
------------------------------------------------------------|
------------------------------------------------------------|
------------------------------------------------------------|
------------------------------------------------------------|
--8-----0-----0-----8-----0-----0-----7-----0-----0-----7---|
        PM-----|          PM-----|          PM--------------|

-----------------------------------------|
-----------------------------------------|
-----------------------------------------|
-----------------------------------------|
-----------------------------------------|
---0-----0-----3--3--3--3--0--0--0--0----|
   PM-----|

-------------------------------------------------------------|
-------------------------------------------------------------|
-------------------------------------------------------------|
-------------------------------------------------------------|
-------------------------------------------------------------|
--10----0-----0-----10----0-----0-----10----0-----0-----10---|
        PM-----|          PM-----|          PM---------------|

----------------------------------------|
----------------------------------------|
----------------------------------------|
----------------------------------------|
----------------------------------------|
--0-----0-----3--3--3--3--0--0--0--0----|
  PM-----|

-------------------------------------------------------------|
-------------------------------------------------------------|
-------------------------------------------------------------|
-------------------------------------------------------------|
-------------------------------------------------------------|
--8-----0-----0-----8-----0-----0-----7-----0-----0-----7----|
        PM-----|          PM-----|          PM---------------|

----------------------------------------|
----------------------------------------|
----------------------------------------|
----------------------------------------|
----------------------------------------|
--0-----0-----3--3--3--3--0--0--0--0----|
  PM-----|

----------------------------------------------------|
----------------------------------------------------|
----------------------------------------------------|
--3-----------3-----------3--3--5--5--5-----5-------|
--3-----------3-----------3--3--5--5--5-----5-------|
--3-----------3-----------3--3--5--5--5-----5-------|


----------------------------------------------------|
----------------------------------------------------|
--------------------------------12-12-12----12------|
--0-----------0-----------0--0--12-12-12----12------|
--0-----------0-----------0--0--10-10-10----10------|
--0-----------0-----------0--0--10-10-10----10------|


----------------------------------------------------|
----------------------------------------------------|
----------------------------------------------------|
--3-----------3-----------3--3--5--5--5-----5-------|
--3-----------3-----------3--3--5--5--5-----5-------|
--3-----------3-----------3--3--5--5--5-----5-------|


-------------------------------------------------------------|
-------------------------------------------------------------|
-------------------------------------------------------------|
-------------------------------------------------------------|
-------------------------------------------------------------|
--7-----0-----0-----7-----0-----0-----7-----0-----0-----7----|
        PM-----|          PM-----|          PM---------------|

----------------------------------------|
----------------------------------------|
----------------------------------------|
----------------------------------------|
----------------------------------------|
--0-----0-----3--3--3--3--0--0--0--0----|
  PM-----|

----------------------------------------------------|
----------------------------------------------------|
----------------------------------------------------|
--3-----------3-----------3--3--5--5--5-----5-------|
--3-----------3-----------3--3--5--5--5-----5-------|
--3-----------3-----------3--3--5--5--5-----5-------|


----------------------------------------------------|
----------------------------------------------------|
--------------------------------12-12-12----12------|
--0-----------0-----------0--0--12-12-12----12------|
--0-----------0-----------0--0--10-10-10----10------|
--0-----------0-----------0--0--10-10-10----10------|


----------------------------------------------------|
----------------------------------------------------|
----------------------------------------------------|
--3-----------3-----------3--3--5--5--5-----5-------|
--3-----------3-----------3--3--5--5--5-----5-------|
--3-----------3-----------3--3--5--5--5-----5-------|


----------------------------------------------------|
----------------------------------------------------|
--11----7-----8-----------8--11----7--8--7--7--7----|
----------------------------------------------------|
--9-----5-----6-----------6--9-----5--6--5--5--5----|
-----0-----0--------0--0--------0-------------------|


----------------------------------------------------|
----------------------------------------------------|
--11----7-----8-----------8--11----7--8--7----------|
----------------------------------------------------|
--9-----5-----6-----------6--9-----5--6--5----------|
-----0-----0--------0--0--------0-------------------|


Chorus:
----------------------------------------------------|
----------------------------------------------------|
--10----------10----------10------------------------|
--10----------10----------10-10-10----10----10------|
--8-----------8-----------8--8--8-----8-----8-------|
--8-----------8-----------8--7--7-----7-----7-------|


----------------------------------------------------|
----------------------------------------------------|
----------------------------------------------------|
--5-----------5-----------5-----7--7--8-----8-------|
--5-----------5-----------5-----5--5--5-----5-------|
--5-----------5-----------5-----5--5--5-----5-------|


----------------------------------------------------|
----------------------------------------------------|
--3-----------3-----------3-----3--3--3-----3-------|
--1-----------1-----------1-----1--1--1-----1-------|
--1-----------1-----------1-----1--1--1-----1-------|
--1-----------1-----------1-----1--1--1-----1-------|


----------------------------------------------------|
----------------------------------------------------|
--2-----------2-----------2-----2--2--2-----2-------|
--0-----------0-----------0-----0--0--0-----0-------|
--0-----------0-----------0-----0--0--0-----0-------|
--0-----------0-----------0-----0--0--0-----0-------|


----------------------------------------------------|
----------------------------------------------------|
--10----------10----------10------------------------|
--10----------10----------10-10-10----10----10------|
--8-----------8-----------8--8--8-----8-----8-------|
--8-----------8-----------8--7--7-----7-----7-------|


----------------------------------------------------|
----------------------------------------------------|
----------------------------------------------------|
--5-----------5-----------5-----7--7--8-----8-------|
--5-----------5-----------5-----5--5--5-----5-------|
--5-----------5-----------5-----5--5--5-----5-------|


----------------------------------------------------|
----------------------------------------------------|
--3-----------3-----------3-----3--3--3-----3-------|
--1-----------1-----------1-----1--1--1-----1-------|
--1-----------1-----------1-----1--1--1-----1-------|
--1-----------1-----------1-----1--1--1-----1-------|


----------------------------------------------------|
----------------------------------------------------|
--2-----------2-----------2-----2--2--2-----2-------|
--0-----------0-----------0-----0--0--0-----0-------|
--0-----------0-----------0-----0--0--0-----0-------|
--0-----------0-----------0-----0--0--0-----0-------|


----------------------------------------------------|
----------------------------------------------------|
--10----------10----------10------------------------|
--10----------10----------10-10-10----10----10------|
--8-----------8-----------8--8--8-----8-----8-------|
--8-----------8-----------8--7--7-----7-----7-------|


----------------------------------------------------|
----------------------------------------------------|
----------------------------------------------------|
--5-----------5-----------5-----7--7--8-----8-------|
--5-----------5-----------5-----5--5--5-----5-------|
--5-----------5-----------5-----5--5--5-----5-------|


----------------------------------------------------|
----------------------------------------------------|
--3-----------3-----------3-----3--3--3-----3-------|
--1-----------1-----------1-----1--1--1-----1-------|
--1-----------1-----------1-----1--1--1-----1-------|
--1-----------1-----------1-----1--1--1-----1-------|


----------------------------------------------------|
----------------------------------------------------|
--2-----------2-----------2-----2--2--2-----2-------|
--0-----------0-----------0-----0--0--0-----0-------|
--0-----------0-----------0-----0--0--0-----0-------|
--0-----------0-----------0-----0--0--0-----0-------|


----------------------------------------------------|
----------------------------------------------------|
--10----------10----------10------------------------|
--10----------10----------10-10-10----10----10------|
--8-----------8-----------8--8--8-----8-----8-------|
--8-----------8-----------8--7--7-----7-----7-------|


----------------------------------------------------|
----------------------------------------------------|
----------------------------------------------------|
--5-----------5-----------5-----7--7--8-----8-------|
--5-----------5-----------5-----5--5--5-----5-------|
--5-----------5-----------5-----5--5--5-----5-------|


----------------------------------------------------|
----------------------------------------------------|
--3-----------3-----------3-----3--3--3-----3-------|
--1-----------1-----------1-----1--1--1-----1-------|
--1-----------1-----------1-----1--1--1-----1-------|
--1-----------1-----------1-----1--1--1-----1-------|


----------------------------------------------------|
----------------------------------------------------|
--2-----------2-----------2-----2--2--2-----2-------|
--0-----------0-----------0-----0--0--0-----0-------|
--0-----------0-----------0-----0--0--0-----0-------|
--0-----------0-----------0-----0--0--0-----0-------|


Outro:
----------------------------------------------------|
----------------------------------------------------|
--11----7-----8-----------8--11----7--8--7--7--7----|
----------------------------------------------------|
--9-----5-----6-----------6--9-----5--6--5--5--5----|
-----0-----0--------0--0--------0-------------------|


----------------------------------------------------|
----------------------------------------------------|
--11----7-----8-----------8--11----7--8--7--7--7----|
----------------------------------------------------|
--9-----5-----6-----------6--9-----5--6--5--5--5----|
-----0-----0--------0--0--------0-------------------|


----------------------------------------------------|
----------------------------------------------------|
--11----7-----8-----------8--11----7--8--7--7--7----|
----------------------------------------------------|
--9-----5-----6-----------6--9-----5--6--5--5--5----|
-----0-----0--------0--0--------0-------------------|


-------------------||
-------------------||
--11----7-----8----||
-------------------||
--9-----5-----6----||
-----0-----0-------||
Tap to rate this tab
# A B C D E F G H I J K L M N O P Q R S T U V W X Y Z