Song name
# A B C D E F G H I J K L M N O P Q R S T U V W X Y Z

Creed - Ode tab

This song is in Drop D tunning:
DADGBe
Inro:
-----------------0-------------------------------------------------
------6-------6----6-----------------------------------------------
-7-5-----7-5--------5----------------------------------------------
0---0---0----0-------0---------------------------------------------
-------------------------------------------------------------------
-------------------------------------------------------------------
Repeat 3 times

Verses:
0-0-0--------------------------------------------------------------
0-0-6----------------------------------------------------------------
7-5-5----------------------------------------------------------------
0-0-0----------------------------------------------------------------
------------------------------------------------------------------
------------------------------------------------------------------
Listen to the song for the rythum

The chourus goes like this:
(Listen to the song for the rythum)

---------------------------------------------------------------
---------------------------------------------------------------
5-----5-7-9-11-9-----------------------------------------------
3-0-3-3-5-7-9--7--------7-5--7-5-------------------------------
3-0-3-3-5-7-9--7-----------7-----7-5-3-------------------------
3-0-3-3-5-7-9--7-----------------------5-3---------------------

After the chorus is played return to the verse riff and play the chorus one more time, and that's pretty much the whole song.
Tap to rate this tab
# A B C D E F G H I J K L M N O P Q R S T U V W X Y Z